» » »

Adicts, Viva La Revolution Bass tabs (ver.1)

Artists:  A B C D E F G H I J K L M N O P Q R S T U V W X Y Z # 

Viva La Revolution Bass tabs (ver.1)

Adicts Tabs
 Rating:
3.8/5 (5 votes)
Viva La Revolution lessons Tabs too difficult? Try these video lessons and learn fast
1
                Standard Tuning (E,A,D,G)

Intro x2:

G-------------------------------|
D-------------444444444444------|
A-444444444444------------2-2-3-|
E-------------------------------|
"Viva!"

Verse x2
G-------------------------------------------|
D-------------444444444444-2~-2~-4-4-4------|
A-444444444444------------------------2-2-3-|
E-------------------------------------------|
"Into the dungeon with the evil men..."

Chorus (Same as Intro)X3

G-------------------------------|
D-------------444444444444------|
A-444444444444------------2-2-3-|
E-------------------------------|
"Viva la revolution!"

On the 4th of the chorus play:

G--------------------------------------------------------------------|
D-------------444444444444--------------------------------4-4-4------|
A-444444444444------------2-2-3-4~~(Pause for "viva la..."-----2-2-3-|
E--------------------------------------------------------------------|


Verse #2 X3:

G--------------------------|
D-------------444444444444-|
A-444444444444-------------|
E--------------------------|

The 4th time play this once:

G--------------------------------------------|
D-------------444444444444-2~-2~-4-4-4-------|
A-444444444444-------------------------2-2-3-|
E--------------------------------------------|
Bridge x4:

G--------------------------|
D-------------444444444444-|
A-444444444444-------------|
E--------------------------|
"Areeba, Areeba (random sounds)

Order:
Intro X2
Verse X2
Chorus X4
Verse #2 X4
Chorus X4
Bridge X4
Chorus X4
Verse X2
Chorus X4
Pause for scratching
Chours Until Fade Out

Pretty easy, I might have made it seem harder then it acctualy is by explaning it, just 
around with it and you'll get it.
            
Submit corrections

comments powered by Disqus
↑ Back to top | Adicts Bass for Viva La Revolution. Lyrics for acoustic guitar and electric guitar. 1 Tablatures and chords are parodies/interpretations of the original songs. You may use it for private study, scholarship, research or language learning purposes only