» » »

Troubadour Tabs (ver.1)

Artists:  A B C D E F G H I J K L M N O P Q R S T U V W X Y Z # 

Troubadour Tabs (ver.1)

Adicts
Rating:
0/5 (0 votes)

Hard to play? Try these video lessons and learn fast.
                ----------------------------------------------------------------------------
                             Troubadour - The Adicts
----------------------------------------------------------------------------

Tuning: Standard

Note: Pete and Scruff play this song way different live, this is the studio version, 
and enjoy :)

I will be tabbing both Rhythm and Lead Guitar, sorry if its confusing at first but 
to the song, and listen to each guitar and you'll ge the hang of it.


Intro Part 1

Lead Guitar
e|-----------------------------|
B|-----------------------------|
G|-----------------------------|
D|--14-14-14------12-----------| 2x
A|------------14------14-12----|
E|-----------------------------|

Rhythm Guitar
e|-----------------------|
B|-----------------------|
G|---------7-------------|
D|-7---5---7---7---------| Let ring each individual Chord
A|-7---5---5---7---------|
E|-5---3-------5---------|

Intro Part 2    0:11

Lead Guitar
e|---------------------------|-----------------------------|
B|---------------------------|-----------------------------|
G|---------------------------|---------------------14------|
D|--14-14-14------12---------|---14-14-14------12------12--|
A|------------14------14-12--|-------------14--------------|
E|---------------------------|-----------------------------|


Rhythm Guitar
e|---------------------------------|
B|---------------------------------|
G|--------------------7~~~~~~7~~~~~|
D|-7-7-7----5-5-5-----7~~~~~~7~~~~~|     ~ = Let Ring
A|-7-7-7----5-5-5-----5~~~~~~5~~~~~|
E|-5-5-5----3-3-3------------------|


Verse 1  0:22

e|-----------------------------------------------|
B|-----------------------------------------------|
G|--14-14-14---12-12-12--------------------------|
D|--14-14-14---12-12-12---12-12-12----12-12-12---|  2x
A|--12-12-12---10-10-10---12-12-12----12-12-12---|
E|------------------------10-10-10----10-10-10---|


Chorus  0:34

e|---------------------------------------|
B|---------------------------------------|
G|---10~~~~------8--5----------10~~~~~~--|
D|---10~~~~10~~~~x--x--10--8---10~~~~~~--| 2x
A|----8~~~~10~~~~6--7--x---x----8~~~~~~--|
E|----------8~~~~------8---6-------------|


Verse 2 Part 1    0:56

Lead Guitar
e|-----------------------------------------------|
B|-----------------------------------------------|
G|--14-14-14---12-12-12--------------------------|
D|--14-14-14---12-12-12---12-12-12----12-12-12---|  2x
A|--12-12-12---10-10-10---12-12-12----12-12-12---|
E|------------------------10-10-10----10-10-10---|


Rhythm Guitar
e|---------|
B|---------|
G|---------|
D|-7---5---| 2x   Let ring each individual Chord
A|-7---5---|
E|-5---3---|

Verse 2 part 2     1:08

Lead Guitar
e|---------------------------|-----------------------------|
B|---------------------------|-----------------------------|
G|---------------------------|---------------------14------|
D|--14-14-14------12---------|---14-14-14------12------12--|
A|------------14------14-12--|-------------14--------------|
E|---------------------------|-----------------------------|


Rhythm Guitar
e|--------------------------|
B|--------------------------|
G|-------------7~~~~~~7~~~~~|
D|-7~~~~~5~~~~~7~~~~~~7~~~~~|     ~ = Let Ring
A|-7~~~~~5~~~~~5~~~~~~5~~~~~|
E|-5~~~~~3~~~~~-------------|

There is a 3rd guitar - it just plays Verse 1


Chorus    1:19

e|---------------------------------------|
B|---------------------------------------|
G|---10~~~~------8--5----------10~~~~~~--|
D|---10~~~~10~~~~x--x--10--8---10~~~~~~--| 2x
A|----8~~~~10~~~~6--7--x---x----8~~~~~~--|
E|----------8~~~~------8---6-------------|


Outro Part 1     1:41

e|--------------------------------------|
B|--------------------------------------|
G|---17-17----15-15---------------------|
D|---17-17----15-15----15-15----15-15---| 2x
A|---15-15----13-13----15-15----15-15---|
E|---------------------13-13----13-13---|

Outro Part 2     1:52


e|--------------------------|
B|--------------------------|
G|-------------10~~~~10~~~~~|
D|-10~~~~~8~~~~10~~~~10~~~~~|
A|-10~~~~~8~~~~~8~~~~~8~~~~~|
E|--8~~~~~6~~~~~------------|

e|--------------------------------------------|
B|--------------------------------------------|
G|-------------10~~~~---------------15---17---|
D|-10~~~~~8~~~~10~~~~---------17--------------|
A|-10~~~~~8~~~~~8~~~~~---15-------------------|
E|--8~~~~~6~~~~~------------------------------|

Solo   2:03

e|----------------------------------|
B|----------------------------------|
G|---19---17---15---14---15---17----|
D|----------------------------------|
A|----------------------------------|
E|----------------------------------|


e|----------------------------------|
B|----------------------------------|
G|---17--15--14--15--17------12/----|
D|----------------------------------|
A|----------------------------------|
E|----------------------------------|


e|--------------------------------------|
B|--------------------------------------|
G|--------------------------------------|
D|---12-9-12-9--------------------------|
A|----------------12-9-12-9-------------|
E|-----------------------------12--13---|

Intro 3   2:14

Lead Guitar
e|---------------------------|-----------------------------|
B|---------------------------|-----------------------------|
G|---------------------------|---------------------14------|
D|--14-14-14------12---------|---14-14-14------12------12--|
A|------------14------14-12--|-------------14--------------|
E|---------------------------|-----------------------------|


Rhythm Guitar
e|--------------------------|
B|--------------------------|
G|-------------7~~~~~~7~~~~~|
D|-7~~~~~5~~~~~7~~~~~~7~~~~~|     ~ = Let Ring
A|-7~~~~~5~~~~~5~~~~~~5~~~~~|
E|-5~~~~~3~~~~~-------------|

Verse 3   2:25

Lead Guitar
e|-----------------------------------------------|
B|-----------------------------------------------|
G|--14-14-14---12-12-12--------------------------|
D|--14-14-14---12-12-12---12-12-12----12-12-12---|  2x
A|--12-12-12---10-10-10---12-12-12----12-12-12---|
E|------------------------10-10-10----10-10-10---|


Rhythm Guitar
e|--------------------------|
B|--------------------------|
G|-------------7~~~~~~7~~~~~|
D|-7~~~~~5~~~~~7~~~~~~7~~~~~|     ~ = Let Ring
A|-7~~~~~5~~~~~5~~~~~~5~~~~~|
E|-5~~~~~3~~~~~-------------|


Last Chorus   2:36

e|---------------------------------------|
B|---------------------------------------|
G|---10~~~~------8--5----------10~~~~~~--|
D|---10~~~~10~~~~x--x--10--8---10~~~~~~--| 2x
A|----8~~~~10~~~~6--7--x---x----8~~~~~~--|
E|----------8~~~~------8---6-------------|


2:58 - To End

e|---------------------------------------|
B|---------------------------------------|
G|---10~~~~------8--5--------------------|
D|---10~~~~10~~~~x--x--10--8----8~~~~~~--| Until It Ends
A|----8~~~~10~~~~6--7--x---x----8~~~~~~--|
E|----------8~~~~------8---6----6~~~~~~--|

Thats it. Practice makes perfect. Get on it. Sing it to the Wife. Sing it to your Girl, 
to a Crush. they will Fall in Love with you.

My Next Tab = Falling in Love Again - Rise and Shine
            
Hard to play? Try these video lessons and learn fast. | Correct




comments powered by Disqus
↑ Back to top | Tablatures and chords are parodies/interpretations of the original songs. You may use it for private study, scholarship, research or language learning purposes only