» » »

Adicts, Tango Tabs (ver.1)

Artists:  A B C D E F G H I J K L M N O P Q R S T U V W X Y Z # 

Tango Tabs (ver.1)

Adicts Tabs
Rating:
4/5 (1 vote)
Tango lessons Tabs too difficult? Try these video lessons and learn fast
                ----------------------------------------------------------------------------
                             Tango - The Adicts
----------------------------------------------------------------------------


Tuning: Standard

  Intro:

e|------------------------|
B|------------------------|
G|------------------------|
D|---5---5---1---1---2----|
A|---5---5---1---1---2----|
E|---3---3---3---3---0----|

e|--------------------------------------------------|
B|-----------------------------------------10-------|
G|---4/5---5----6/7---7---------------10--------10--|
D|---4/5---5----6/7---7----6/7---7----10------------|
A|---2/3---3----4/5---5----6/7---7----8-------------|
E|-------------------------4/5---5------------------|

e|----------------------------------------|
B|----------------------------------------|
G|---4/5---5----6/7---7-------------------|
D|---4/5---5----6/7---7----6/7---7----3---|
A|---2/3---3----4/5---5----6/7---7----3---|
E|-------------------------4/5---5----1---|

  Verse 1:

e|--------------------------------------------------|
B|-----------------------------------------10-------|
G|---4/5---5----6/7---7---------------10--------10--|
D|---4/5---5----6/7---7----6/7---7----10------------|
A|---2/3---3----4/5---5----6/7---7----8-------------|
E|-------------------------4/5---5------------------|


e|----------------------------------------|
B|----------------------------------------|
G|---4/5---5----6/7---7-------------------|
D|---4/5---5----6/7---7----6/7---7----(3)-|
A|---2/3---3----4/5---5----6/7---7----(3)-|
E|-------------------------4/5---5----(1)-|

                                     (muted quickly after sounded)


  Chorus: (play first part 3x,2nd part 1x)

e|-----------------------------|--------------------------|
B|-----------------------------|--------------------------|
G|---9---10--12----------------|---12---10--9-------------|
D|---9---10--12---10--10-------|---12---10--9-------------|
A|---7---8---10---10--10-------|---10---8---7-------------|
E|----------------8---8--------|--------------------------|
                  *   *

  Pre-Verse:

e|--------------------------------------------------|
B|-----------------------------------------10-------|
G|---4/5---5----6/7---7---------------10--------10--|
D|---4/5---5----6/7---7----6/7---7----10------------|
A|---2/3---3----4/5---5----6/7---7----8-------------|
E|-------------------------4/5---5------------------|

e|------------------------------------------|
B|------------------------------------------|
G|---4/5---5----6/7---7---------------10----|
D|---4/5---5----6/7---7----6/7---7----10----|
A|---2/3---3----4/5---5----6/7---7----8-----|
E|-------------------------4/5---5----------|


  Verse 2:

e|----------------------------------------|
B|----------------------------------------|
G|---4/5---5--5---6/7---7--7--------------|
D|---4/5---5--5---6/7---7--7---6/7---7----|
A|---2/3---3--3---4/5---5--5---6/7---7----|
E|-----------------------------4/5---5----|


  Chorus: (play first part 3x,2nd part 1x)

e|-----------------------------|--------------------------|
B|-----------------------------|--------------------------|
G|---9---10--12----------------|---12---10--9-------------|
D|---9---10--12---10--10-------|---12---10--9-------------|
A|---7---8---10---10--10-------|---10---8---7-------------|
E|----------------8---8--------|--------------------------|

                  *   *


  Solo:


e|-------------------------------------------------------------------------|
B|-------------------------------------------------------------------------|
G|-------------------------------------------------------------------------|
D|---4--5---4--5---4--5---6--7---6--7---6--7---9--10---9--10---9--10---9---|
A|-------------------------------------------------------------------------|
E|-------------------------------------------------------------------------|

e|-------------------------------------------------------------------------|
B|-------------------------------------------------------------------------|
G|-------------------------------------------------------------------------|
D|---10---12---4--5---4--5---4--5---6--7---6--7---6--7---10--9--7--5--3----|
A|-------------------------------------------------------------------------|
E|-------------------------------------------------------------------------|


  Chorus: Play to End


| *  palm-mute
| /  slide up
| \  slide down
| h  hammer-on
| p  pull-off
| ~  vibrato
| +  harmonic
| x  Mute note
============================================================================
            

comments powered by Disqus
↑ Back to top | Adicts Tabs for Tango. Lyrics for acoustic guitar and electric guitar. Tablatures and chords are parodies/interpretations of the original songs. You may use it for private study, scholarship, research or language learning purposes only