» » »

Steamroller Bass tabs (ver.1)

Artists:  A B C D E F G H I J K L M N O P Q R S T U V W X Y Z # 

Steamroller Bass tabs (ver.1)

Adicts
Rating:
5/5 (1 vote)

Hard to play? Try these video lessons and learn fast.
                the adicts - steamroller

Intro
G|-----------------------------------|
D|-----------------------------------|
A|-------77777-----------------------|
E|-55555------88888-7777777777777777-|

Chorus
G|-----------------------------|
D|-----------------------------|
A|-------77777-----------------|
E|-55555-------88888--77-5-3-5-|

Verse
G|------------------------------------------|
D|------------------------------------------|
A|-888888-777777-888888-777777-888888-7-----|
E|--------------------------------------8-7-|

Bridge
G|-------------------------------------------------|
D|-------------------------------------------------|
A|-888888-7---888888-7---888888-7--887-887-887-----|
E|---------------------------------------------8-7-|

Outro
G|-----------------------|
D|-----------------------|
A|-------77777-----------|
E|-55555-------88888--7--|
(starts with guitar and drums for a long time, then this part comes in. before it, throw 
some bends somewhere high I think. Not sure though.)

Intro
Chorus x4
Verse
Chorus x2
Verse
Chorus x2
Bridge
Chorus x2
Verse
Chorus x2
Outro
            
Hard to play? Try these video lessons and learn fast. | Correct




comments powered by Disqus
↑ Back to top | Tablatures and chords are parodies/interpretations of the original songs. You may use it for private study, scholarship, research or language learning purposes only