» » »

Adicts, Numbers Tabs (ver.1)

Artists:  A B C D E F G H I J K L M N O P Q R S T U V W X Y Z # 

Numbers Tabs (ver.1)

Adicts Tabs
Rating:
4/5 (2 votes)
Numbers lessons Tabs too difficult? Try these video lessons and learn fast
                Intro i don't know why — appears on tabs if u erase it u can read tab perfectly

e|---------------------------------------------------------|
B|---------------------------------------------------------|
G|--7-x-x---5-x-x------------------------------------------|
D|--7-x-x---5-x-x--8---------------------------------------|
A|--5-x-x---3-x-x--8---------------------------------------|
E|-----------------6---------------------------------------|

1 2 3 4 5 6 7…
e|---------------------------------------------------------|
B|---------------------------------------------------------|
G|--7-x-x---5-x-x---------------------7777777--------------|
D|--7-x-x---5-x-x—8888888-8-x-x-7-x-x-7777777--------------|
A|--5-x-x---3-x-x—8888888-8-x-x-7-x-x-5555555--------------|
E|----------------6666666-6-x-x-5-x-x----------------------|  x 2

Verse 1 
e|---------------------------------------------------------|
B|---------------------------------------------------------|
G|--7-x-x---5-x-x---------------------7777777--------------|
D|--7-x-x---5-x-x—8888888-8-x-x-7-x-x-7777777--------------|
A|--5-x-x---3-x-x—8888888-8-x-x-7-x-x-5555555--------------|
E|----------------6666666-6-x-x-5-x-x----------------------|  x2

Prechorus

e|-------------------------------------------|
B|-------------------------------------------|
G|---12--------------------------------------|
D|---12--------------------------------------|
A|---10--------------------------------------|
E|-------------------------------------------|

I dont wanna be a 1 2 3 4 5 6 7



Verse 2 
e|---------------------------------------------------------|
B|---------------------------------------------------------|
G|--7-x-x---5-x-x---------------------7777777--------------|
D|--7-x-x---5-x-x—8888888-8-x-x-7-x-x-7777777--------------|
A|--5-x-x---3-x-x—8888888-8-x-x-7-x-x-5555555--------------|
E|----------------6666666-6-x-x-5-x-x----------------------|  x2

Prechorus

e|-------------------------------------------|
B|-------------------------------------------|
G|---12--------------------------------------|
D|---12--------------------------------------|
A|---10--------------------------------------|
E|-------------------------------------------|

I dont wanna be no 1 2 3 4 5 6 7
Chorus 

e|--------------------------------------------------------------------------|
B|--------------------------------------------------------------------------|
G|---/11-11-11-11-11-11-/11-11-11-11-11-11--7---7-7-7-7-7-7-7-7-7-7-7-7-7-7-|
D|---/11-11-11-11-11-11-/11-11-11-11-11-11--7---7-7-7-7-7-7-7-7-7-7-7-7-7-7-|
A|----/9——9——9—-9--9--9—-/9—-9--9--9—-9--9--5—--5-5-5-5-5-5-5-5-5-5-5-5-5-5-|
E|-----------------------------------------------------------------------|x4 



Verse 3
e|---------------------------------------------------------|
B|---------------------------------------------------------|
G|--7-x-x---5-x-x---------------------7777777--------------|
D|--7-x-x---5-x-x—8888888-8-x-x-7-x-x-7777777--------------|
A|--5-x-x---3-x-x—8888888-8-x-x-7-x-x-5555555--------------|
E|----------------6666666-6-x-x-5-x-x----------------------|  x2

Prechorus

e|-------------------------------------------|
B|-------------------------------------------|
G|---12--------------------------------------|
D|---12--------------------------------------|
A|---10--------------------------------------|
E|-------------------------------------------|

I dont wanna be no 1 2 3 4 5 6 7

Chorus 

e|--------------------------------------------------------------------------|
B|--------------------------------------------------------------------------|
G|---/11-11-11-11-11-11-/11-11-11-11-11-11--7---7-7-7-7-7-7-7-7-7-7-7-7-7-7-|
D|---/11-11-11-11-11-11-/11-11-11-11-11-11--7---7-7-7-7-7-7-7-7-7-7-7-7-7-7-|
A|----/9——9——9—-9--9--9—-/9—-9--9--9—-9--9--5—--5-5-5-5-5-5-5-5-5-5-5-5-5-5-|
E|-----------------------------------------------------------------------|x4 


Solo (I don’t know solo so I put chords XD)

e|----------------------------------------------------|
B|----------------------------------------------------|
G|-----------------------77777777777777---------------|
D|---5-5555555555--------77777777777777---------------|
A|---5-5555555555----3-5-55555555555555---------------|
E|---3-3333333333--6----------------------------------|x4

e|---------------------------------------------------------|
B|---------------------------------------------------------|
G|--7-x-x---5-x-x---------------------7777777--------------|
D|--7-x-x---5-x-x—8888888-8-x-x-7-x-x-7777777--------------|
A|--5-x-x---3-x-x—8888888-8-x-x-7-x-x-5555555--------------|
E|----------------6666666-6-x-x-5-x-x----------------------| x4

Verse 1 
e|---------------------------------------------------------|
B|---------------------------------------------------------|
G|--7-x-x---5-x-x---------------------7777777--------------|
D|--7-x-x---5-x-x—8888888-8-x-x-7-x-x-7777777--------------|
A|--5-x-x---3-x-x—8888888-8-x-x-7-x-x-5555555--------------|
E|----------------6666666-6-x-x-5-x-x----------------------|  x2

Prechorus

e|-------------------------------------------|
B|-------------------------------------------|
G|---11--------------------------------------|
D|---11--------------------------------------|
A|----9--------------------------------------|
E|-------------------------------------------|

I dont wanna be a 1 2 3 4 5 6 7

Chorus 

e|--------------------------------------------------------------------------|
B|--------------------------------------------------------------------------|
G|---/11-11-11-11-11-11-/11-11-11-11-11-11--7---7-7-7-7-7-7-7-7-7-7-7-7-7-7-|
D|---/11-11-11-11-11-11-/11-11-11-11-11-11--7---7-7-7-7-7-7-7-7-7-7-7-7-7-7-|
A|----/9——9——9—-9--9--9—-/9—-9--9--9—-9--9--5—--5-5-5-5-5-5-5-5-5-5-5-5-5-5-|
E|-----------------------------------------------------------------------|x3 

Final                          
e|-------------------------------------------------------------------------|
B|-------------------------------------------------------------------------|
G|---/11-11-11-11-11-11-/11-11-11-11-11-11-------------------------7-------|
D|---/11-11-11-11-11-11-/11-11-11-11-11-11-------------------------7-------|
A|----/9——9——9—-9--9--9—-/9—-9--9--9—-9--9-------------------------5-------|
E|-------------------------------------------------------------------------|
                                         I don’t wanna be no 1234567
            

comments powered by Disqus
↑ Back to top | Adicts Tabs for Numbers. Lyrics for acoustic guitar and electric guitar. Tablatures and chords are parodies/interpretations of the original songs. You may use it for private study, scholarship, research or language learning purposes only