» » »

Love Sucks Tabs (ver.1)

Artists:  A B C D E F G H I J K L M N O P Q R S T U V W X Y Z # 

Love Sucks Tabs (ver.1)

Adicts
Rating:
5/5 (2 votes)

Hard to play? Try these video lessons and learn fast.
                -----------------------------------------------------------------
Love Sucks - The Adicts
-----------------------------------------------------------------

Tuning:Standard

Verse:
e|---------------------------------------------------------------|
B|---------------------------------------------------------------|
G|---------------------------------------------------------------|
D|-66666-4-22222-4-----------77777777-44444444-------------------|
A|-66666-4-22222-4-(4 times)-77777777-44444444-(4 times)---------|
E|-44444-2-00000-2-----------55555555-22222222-------------------|

Chorus:
e|---------------------------------------------------------------|
B|---------------------------------------------------------------|
G|-99999999------------------------------------------------------|
D|-99999999-77777777---------------------------------------------|
A|-77777777-77777777---------------------------------------------|
E|----------55555555---------------------------------------------|

Semi-solo at the beggining of the second verse:
e|---------------------------------------------------------------|
B|---------------------------------------------------------------|
G|-9-(just nail that and wail it around by bending and stuff and-|
D|----let it turn into feedback then go away)--------------------|
A|---------------------------------------------------------------|
E|---------------------------------------------------------------|

The end of the song where it does the different kinda chorus thing:
e|---------------------------------------------------------------|
B|---------------------------------------------------------------|
G|-1010101010101010----------------------------------------------|
D|-1010101010101010-1010101010101010-----------------------------|
A|--8-8-8-8-8-8-8-8-1010101010101010-----------------------------|
E|-------------------8-8-8-8-8-8-8-8-----------------------------|

| / slide up
| \ slide down
| h hammer-on
| p pull-off
| ~ vibrato
| + harmonic
| x Mute note
            
Hard to play? Try these video lessons and learn fast. | Correct




comments powered by Disqus
↑ Back to top | Tablatures and chords are parodies/interpretations of the original songs. You may use it for private study, scholarship, research or language learning purposes only