» » »

Adicts, I Am Yours Tabs (ver.1)

Artists:  A B C D E F G H I J K L M N O P Q R S T U V W X Y Z # 

I Am Yours Tabs (ver.1)

Adicts Tabs
Rating:
5/5 (1 vote)
I Am Yours lessons Tabs too difficult? Try these video lessons and learn fast
                I Am Yours by The Adicts

U=Up stroke with pick
D=Down stroke with pick (it sounds better if the strumming is played like I tabbed it)

  Intro/Verse
E----------|--------3-|-1---1-|-3--------|
B-----1----|------0---|---3---|---3------|
G-------0--|----0-----|-------|-----3----|
D---2------|----------|-------|-------5--|
A-3--------|-2--------|-------|----------|
E----------|-3--------|-------|----------| x2

For the first part of the verse, the intro is played again with palm muted notes after 
each set of notes.
Then it goes into power chords:

(each power chord played about 10 or more times)

  D DUD DUD  D DUD DUD    DUD DUD
E---xxx-xxx----xxx-xxx----xxx-xxx--|
B---xxx-xxx----xxx-xxx----xxx-xxx--|
G-5-xxx-xxx--9-xxx-xxx--7-xxx-xxx--|
D-5-xxx-xxx--9-xxx-xxx--7-xxx-xxx--|
A-3----------7----------5----------|
E----------------------------------|

Pre-chorus:
  D              D              D      D          D        D
E--------------------------------------------------|
B--------------------------------------------------|
G--------------------------------------------------|
D-4/5-5-5-5--4/5-5-5-5--4/5-5--4/5-5--4/5-5--4/5-5-|
A-4/5-5-5-5--4/5-5-5-5--4/5-5--4/5-5--4/5-5--4/5-5-|
E-2/3-3-3-3--2/3-3-3-3--2/3-3--2/3-3--2/3-3--2/3-3-|

Chorus:
  DDDDDDDD DDDDD D D U   DDU DUDD
E-----------------------------------|
B-----------------------------------|
G-55555555---------------555--------|
D-55555555-55555-----3~--555-5555---|
A-33333333-55555-----3~--333-5555---|
E----------33333-3-2-1~------3333---|

(Verse *without intro* palm muted)
(Pre-chorus)
(Chorus)

Break: (with intro)
 *let chords ring*
 *do this slide fast*
E----------------|     Then you play the pre-chorus and after that the
B----------------|     chorus is played until it fades out and
G--5~--5/9---7~--|     that’s pretty much it.
A--3~--3/7---5~--|
E----------------|
            
Submit corrections

comments powered by Disqus
↑ Back to top | Adicts Tabs for I Am Yours. Lyrics for acoustic guitar and electric guitar. Tablatures and chords are parodies/interpretations of the original songs. You may use it for private study, scholarship, research or language learning purposes only