» » »

Eyes In The Back Of Your Head 1 Tabs

Artists:  A B C D E F G H I J K L M N O P Q R S T U V W X Y Z # 

Eyes In The Back Of Your Head 1 Tabs

(ver. 2)
Adicts Tabs
 Rating:
4.3/5 (6 votes)
    Eyes In The Back Of Your Head lessons Tabs too difficult? Try these video lessons and learn fast
                                      EYES IN THE BACK OF YOUR HEAD
                   '''''''''''''''''''''''''''''''''''
                               THE ADICTS

" "- palm mute
/ -press (the next note, without picking)
x -blank strum harmonic
() -distort only these notes


e|---------------------------------------------------------|
b|-6-5-6-5-10--10-8--------8-10-10-8--8-8-11--11-11-10-----|
g|-7-7-7-7--9---9---10--10---10-10-7----7-10-----10--9-7-6-| intro
d|-0--------7---7----8---8---10-10-5----5--8------8--7-----|
a|----------------------------8--8-------------------------|
E|---------------------------------------------------------|

e|--------------------------|
b|-------10-8---------------|
g|---7-6------ end intro.---|intro and verse a played acoustic and light
d|-7------------------------|
a|--------------------------|
E|--------------------------|

e|---------------------------------------------------------|
b|-6-5-6-5-10--10-8--------8-10-10-8--8-8-11--11-11-10-----|
g|-7-7-7-7--9---9---10--10---10-10-7----7-10-----10--9-7-6-| verse
d|-0--------7---7----8---8---10-10-5----5--8------8--7-----|  a
a|----------------------------8--8-------------------------|
E|---------------------------------------------------------|

e|--------------------------------------------------------|
b|-------10-8--6-5-6-5-10--10-8--------8-10-10------------|
g|---7-6-------7-7-7-7--9---9---10--10---10-10------------| end verse
d|-7--------------------7---7----8---8---10-10------------|    a
a|----------------------------------------8--8-(5--8--7)--|
E|---------------------------------------------(3--6--5)--|

e|--------------------------------------------------------|
b|--------------------------------------------------------|
g|--------------------------------------------------------| bridge
d|------------------------- (x's for bridge on 5; done 14-| times if
a|------------------------- you dont wanna count)---------|distorted
E|-xxxxxxxxxxxxxxx-5-6-7-8--------------------------------|

e|-------------------------------------------------------------|
b|-------------------------------------------------------------|
g|----------------------------x5-55-7-777777-10-101010101010-9-| verse
d|-7-7777-5-------------------x3-33-5-555555--8--8-8-8-8-8-8-7-|  b
a|-5-5555-3-7-777777-8-8888-5----------------------------------|
E|----------5-555555-6-6666-3----------------------------------|

e|-------------------------------|
b|-------------------------------|
g|-------------------------------|
d|--------------- end verse b.---|(this verse played with distortion)
a|-xxxxxxxxxxxxx-
E|-xxxxxxxxxxxxx-

e|---------------------------------------------------|
b|---------------------------------------------------|
g|-5-------------5-------------5-------------4-4-444-| interlude
d|-3-"3-3-3-3-3"-3-"3-3-3-3-3"-3-"3-3-3-3-3"-2-2-222-|
a|---------------------------------------------------|
E|---------------------------------------------------|

e|---------------------------|
b|---------------------------|
g|---------------------------| chorus
d|-5-5555-5-5-5555-5-5-5-5-5-|
a|-3-3333-2-3-3333-2-3-2-3-2-|
E|---------------------------|

e|-----------------------------------------|
b|-----------------------------------------|
g|-7-7777-5--------------------------------| verse c
d|----------7---7-8-8/7-6-----5-4-5--8-7-8-|
a|------------------------8----------------|
E|-----------------------------------------|

e|--------------------------------------------------------|
b|-----------------10-11--11/10-8------8-7-8--11-10-11-10-|
g|--------------------------------10----------------------| verse d
d|-7-7777-5-----------------------------------------------|
a|-5-5555-3-7-77-7----------------------------------------|
E|----------5-55-5----------------------------------------|

e|-----------------|
b|-10/11/10-8------|
g|------------10-9-| end verse d.
d|-----------------|
a|-----------------|
E|-----------------|

e|------------------------------------------------------|
b|-6-6666-5-10-10101010-8-------------8-10-101010101010-|
g|-7-7777-7--9--9-9-9-9---10-10101010---10-101010101010-| ending
d|-----------7--7-7-7-7----8--8-8-8-8---10-101010101010-|
a|---------------------------------------8--8-8-8-8-8-8-|
E|------------------------------------------------------|

e|-------------------------------------------------------|
b|-8-7-8-11-111111111111-10-101010101010-10-101010101010-|
g|-7-7-7-10-101010101010--9--9-9-9-9-9-9--9--9-9-9-9-9-9-| end ending.
d|-5-5-5--8--8-8-8-8-8-8--7--7-7-7-7-7-7--7--7-7-7-7-7-7-|
a|-------------------------------------------------------|
E|-------------------------------------------------------|

SONG ORDER
-----------
intro x2
verse a
bridge
verse b x2
bridge (just add on last 4 notes of bridge after x's in verse b)
interlude x2
chorus
verse a
bridge
verse b x2
bridge (just add...etc.)
interlude x2
chorus
verse c
bridge
verse d
repeat/fade ending

 *remember, there's 2 guitars? dunno, sounds like it to me cuz i
couldnt get it all on one. this probably combines them a little.
it fits though and sounds perfect. hard to figure out
acoustic sounds on an electric im afraid, so i did my best. the
end is basically verse a with strumming. do things different
to make it sound how you want, this is just my version. dont forget,
"everything is alright, everything is fine..."
            
Submit corrections

↑ Back to top | Adicts Tabs for Eyes In The Back Of Your Head. Lyrics for acoustic guitar and electric guitar. Tablatures and chords are parodies/interpretations of the original songs. You may use it for private study, scholarship, research or language learning purposes only