» » »

Adicts, Eyes In The Back Of Your Head Tabs (ver.1)

Artists:  A B C D E F G H I J K L M N O P Q R S T U V W X Y Z # 

Eyes In The Back Of Your Head Tabs (ver.1)

Adicts Tabs
 Rating:
4/5 (4 votes)
Eyes In The Back Of Your Head lessons Tabs too difficult? Try these video lessons and learn fast
                Band: Adicts



Intro

e--1-0-1-0------------------------------------------------------------|
B--3-3-3-3--3-2-2--3-3-3---------------3-3-3--3-2-3-2-3-2-------------|
G--2-2-2-2--2-2-2--3-3-3--2-2-2--4-4-4-3-3-3--2-2-2-2-2-2-------------|
D--0-0-0-0--2-2-2--3-3-3--3-3-3--5-5-5-3-3-3--2-2-2-2-2-2-------------|
A-----------0-0-0--1-1-1--3-3-3--5-5-5-1-1-1--0-0-0-0-0-0-------------|
E-------------------------1-1-1--3-3-3--------------------------------|

2nd guitar (overdub)                           only played  V before bridge
e---------------------------------------------------------|------------|
B---------------------------------------------------------|------------|
G---------------------------------------------7-6---7-6---|--12-14-----|
D-------------------------------------------------7-----7-|------------|
A---------------------------------------------------------|------------|
E---------------------------------------------------------|------------|

Bridge
e---------------------------------------------------------------------|
B---------------------------------------------------------------------|
G---------------------------------------------------------------------|
D-----5------8-xxxxxxxxxxx--------------------------------------------|
A-----5------8-xxxxxxxxxxx--------------------------------------------|
E-----3------6-xxxxxxxxxxx-5-6-7-8------------------------------------|

Section A
                                   harmonic scratches V are overdubbed
e-------------------------------------------------x-x-x-x-------------|
B-------------------------------------------------x-x-x-x-------------|
G-7-7-7-7-----------------------------------------x-x-x-x-------------|
D-7-7-7-7-7-7-7-7-8-8-8-8-3-3-3-3-5-5-5-5-8-8-8-8-7-7-7-7-------------|
A-5-5-5-5-7-7-7-7-8-8-8-8-3-3-3-3-5-5-5-5-8-8-8-8-7-7-7-7-------------|
E---------5-5-5-5-6-6-6-6-1-1-1-1-3-3-3-3-6-6-6-6-5-5-5-5-------------|

Section B

e---------------------------------------------------------------------|
B---------------------------------------------------------------------|
G--10-x-x-x-x-x-10-x-x-x-x-x-10-x-x-x-x-x-10-9-9-9-9------------------|
D--10-x-x-x-x-x-10-x-x-x-x-x-10-x-x-x-x-x-10-9-9-9-9------------------|
A--8--x-x-x-x-x-8--x-x-x-x-x-8--x-x-x-x-x-8--7-7-7-7------------------|
E---------------------------------------------------------------------|

Section C

e---------------------------------------------------------------------|
B---------------------------------------------------------------------|
G---------------------------------------------------------------------|
D-------------------------------------------x-x-x---------------------|
A----------------------------------------5--x-x-x---------------------|
E---7---8----7----8------7-8-7-8-7-8--------x-x-x---------------------|

Solo

e---------------------------------------------------------------------|
B---------------------------------------------------------------------|
G-7-7-7-5-------------------------------------------------------------|
D---------7-7-8-7-8-7-5-3-5-4-5-4-5-7-8-7-8---x-x-x-------------------|
A---------------------------------------------x-x-x-------------------|
E---------------------------------------------x-x-x-------------------|

Outro Solo

e---------------------------------------------------------------------|
B----------8--10-10-11-10-11-10-8-------------------------------------|
G--7-10-10-------------------------9-10-9-10--10-12-10-12--14---------|
D---------------------------------------------------------------------|
A---------------------------------------------------------------------|
E---------------------------------------------------------------------|

Order
Intro x4
Bridge
Section A x2
Section B x2
Section C
Intro
Section D(section A with one strum to each chord)
Section A
Section B x2
Section C
Solo
Outro Solo


any questions or comments contact me rate please
            
Submit corrections

comments powered by Disqus
↑ Back to top | Adicts Tabs for Eyes In The Back Of Your Head. Lyrics for acoustic guitar and electric guitar. Tablatures and chords are parodies/interpretations of the original songs. You may use it for private study, scholarship, research or language learning purposes only