» » »

Adicts, Easy Way Out Tabs (ver.1)

Artists:  A B C D E F G H I J K L M N O P Q R S T U V W X Y Z # 

Easy Way Out Tabs (ver.1)

Adicts Tabs
 Rating:
3.3/5 (6 votes)
Easy Way Out lessons Tabs too difficult? Try these video lessons and learn fast
1
                (Live)
band:Adicts
Album:rockers into orbit



have AMP well play this tab if u dont have a AMP it will not relly sound like it
intro:Guitar 1
e|----3xxxxxxxxxxxxxx3xxxxxxxxxxxxxxx3xxxxxxxxxxxxxxx3xxxxxxxxxxxxxxx3----|
B|----3xxxxxxxxxxxxxx3xxxxxxxxxxxxxxx3xxxxxxxxxxxxxxx3xxxxxxxxxxxxxxx3----|
G|----3xxxxxxxxxxxxxx3xxxxxxxxxxxxxxx3xxxxxxxxxxxxxxx3xxxxxxxxxxxxxxx3----|
D|----3xxxxxxxxxxxxxx3xxxxxxxxxxxxxxx3xxxxxxxxxxxxxxx3xxxxxxxxxxxxxxx3----|
A|----3xxxxxxxxxxxxxx3xxxxxxxxxxxxxxx3xxxxxxxxxxxxxxx3xxxxxxxxxxxxxxx3----|
E|----3xxxxxxxxxxxxxx3xxxxxxxxxxxxxxx3xxxxxxxxxxxxxxx3xxxxxxxxxxxxxxx3----|
make sure u have it on 3 when your doing the Mute note

verse 1:Guitar 1
e|------------------------------------------------------------------------|
B|----5xxx----5xxx---5xxx---7xxx---7xxx---7xxx---77-6---------------------|
G|----5xxx----5xxx---5xxx---7xxx---7xxx---7xxx---77-6---------------------|
D|----3xxx----3xxx---3xxx---5xxx---5xxx---5xxx---55-4---------------------|
A|------------------------------------------------------------------------|
E|------------------------------------------------------------------------|
(do that 8 times but im not sure so just listen to the song)
         

guitar 2:DO IT WELL PLAYING VERSE 1:
e|-----------------------xxx----------------------------------------------|
B|-----------------------xxx----------------------------------------------|
G|-------2~7~6~4~--------xxx----------------------------------------------|
D|-----------------------xxx----------------------------------------------|
A|-----------------------xxx----------------------------------------------|
E|-----------------------xxx----------------------------------------------|

Guitar 1:
e|-----------------------------------------------------------------------|
B|------7>888888---------------------------------------------------------|
G|------7>888888---------------------------------------------------------|
D|------5>666666---------------------------------------------------------|
A|-----------------------------------------------------------------------|
E|-----------------------------------------------------------------------|
(do that 4 times)
chorus:Guitar 1
e|-----------------------------------------------------------------------|
B|-----------------------------------------------------------------------|
G|---55555555---33333333---55555555---33333333---------------------------|
D|---55555555---33333333---55555555---33333333---------------------------|
A|---33333333---11111111---33333333---11111111---------------------------|
E|-----------------------------------------------------------------------|
so i chose the easy way out:guitar1
e|------------888888------------888888------------888888----------------|
B|---888888---888888---888888---888888---888888---888888----------------|
G|---888888---666666---888888---666666---888888---666666----------------|
D|---666666------------666666------------666666-------------------------|
A|----------------------------------------------------------------------|
E|----------------------------------------------------------------------|
I........ cut my throat............
intro:guitar 1
e|----3xxxxxxxxxxxxxx3xxxxxxxxxxxxxxx3xxxxxxxxxxxxxxx3xxxxxxxxxxxxxxx3----|
B|----3xxxxxxxxxxxxxx3xxxxxxxxxxxxxxx3xxxxxxxxxxxxxxx3xxxxxxxxxxxxxxx3----|
G|----3xxxxxxxxxxxxxx3xxxxxxxxxxxxxxx3xxxxxxxxxxxxxxx3xxxxxxxxxxxxxxx3----|
D|----3xxxxxxxxxxxxxx3xxxxxxxxxxxxxxx3xxxxxxxxxxxxxxx3xxxxxxxxxxxxxxx3----|
A|----3xxxxxxxxxxxxxx3xxxxxxxxxxxxxxx3xxxxxxxxxxxxxxx3xxxxxxxxxxxxxxx3----|
E|----3xxxxxxxxxxxxxx3xxxxxxxxxxxxxxx3xxxxxxxxxxxxxxx3xxxxxxxxxxxxxxx3----|
verse 1:Guitar 1
e|------------------------------------------------------------------------|
B|----5xxx----5xxx---5xxx---7xxx---7xxx---7xxx---77-6---------------------|
G|----5xxx----5xxx---5xxx---7xxx---7xxx---7xxx---77-6---------------------|
D|----3xxx----3xxx---3xxx---5xxx---5xxx---5xxx---55-4---------------------|
A|------------------------------------------------------------------------|
E|------------------------------------------------------------------------|

guitar 2:DO IT WELL PLAYING VERSE 1:
e|-----------------------xxx----------------------------------------------|
B|-----------------------xxx----------------------------------------------|
G|-------2~7~6~4~--------xxx----------------------------------------------|
D|-----------------------xxx----------------------------------------------|
A|-----------------------xxx----------------------------------------------|
E|-----------------------xxx----------------------------------------------|
Guitar 1:
e|-----------------------------------------------------------------------|
B|------7>888888---------------------------------------------------------|
G|------7>888888---------------------------------------------------------|
D|------5>666666---------------------------------------------------------|
A|-----------------------------------------------------------------------|
E|-----------------------------------------------------------------------|
(do that 4 times)
chorus:Guitar 1
e|-----------------------------------------------------------------------|
B|-----------------------------------------------------------------------|
G|---55555555---33333333---55555555---33333333---------------------------|
D|---55555555---33333333---55555555---33333333---------------------------|
A|---33333333---11111111---33333333---11111111---------------------------|
E|-----------------------------------------------------------------------|
so i chose the easy way out:guitar1
e|------------888888------------888888------------888888----------------|
B|---888888---888888---888888---888888---888888---888888----------------|
G|---888888---666666---888888---666666---888888---666666----------------|
D|---666666------------666666------------666666-------------------------|
A|----------------------------------------------------------------------|
E|----------------------------------------------------------------------|
I........ cut my throat......I........CUT MY RIST...chose the easy way out
e|----3xxxxxxxxxxxxxx3xxxxxxxxxxxxxxx3xxxxxxxxxxxxxxx3xxxxxxxxxxxxxxx3---|
B|----3xxxxxxxxxxxxxx3xxxxxxxxxxxxxxx3xxxxxxxxxxxxxxx3xxxxxxxxxxxxxxx3---|
G|----3xxxxxxxxxxxxxx3xxxxxxxxxxxxxxx3xxxxxxxxxxxxxxx3xxxxxxxxxxxxxxx3---|
D|----3xxxxxxxxxxxxxx3xxxxxxxxxxxxxxx3xxxxxxxxxxxxxxx3xxxxxxxxxxxxxxx3---|
A|----3xxxxxxxxxxxxxx3xxxxxxxxxxxxxxx3xxxxxxxxxxxxxxx3xxxxxxxxxxxxxxx3---|
E|----3xxxxxxxxxxxxxx3xxxxxxxxxxxxxxx3xxxxxxxxxxxxxxx3xxxxxxxxxxxxxxx3---|

e|-----------------------------------------------------------------------|
B|-----------------------------------------------------------------------|
G|---55555555---33333333---55555555---33333333---------------------------|
D|---55555555---33333333---55555555---33333333---------------------------|
A|---33333333---11111111---33333333---11111111---------------------------|
E|-----------------------------------------------------------------------|
do this untell the song is over.pleas right 2 me if u like this tab and comment abount it thanx


| /  slide up
| \  slide down
| h  hammer-on
| p  pull-off
| ~  vibrato
| +  harmonic
| x  Mute note
            
Submit corrections

comments powered by Disqus
↑ Back to top | Adicts Tabs for Easy Way Out. Lyrics for acoustic guitar and electric guitar. 1 Tablatures and chords are parodies/interpretations of the original songs. You may use it for private study, scholarship, research or language learning purposes only