» » »

Do It Bass tabs (ver.1)

Artists:  A B C D E F G H I J K L M N O P Q R S T U V W X Y Z # 

Do It Bass tabs (ver.1)

Adicts
Rating:
0/5 (0 votes)

Tabs too difficult? Try these video lessons and learn fast.
                THE ADICTS - DO IT
27: 1993
TUNING: STANDARD E.A.D.G


INTRO: X1

G:|-------------------------------------------------------------------|
D:|-------------------------------------------------------------------|
A:|77777777777777776777777777777777-----------------------------------|
E:|---------------------------------5555555555555555-7777777777777777-|


VERES: 1ST TIME

G:|-------------------------------------------------------------------|
D:|-------------------------------------------------------------------|
A:|77777777777777776777777777777777-----------------------------------|
E:|---------------------------------5555555555555555-7777777777777777-|

2ND TIME

G:|-------------------------------------------------------------------|
D:|-------------------------------------------------------------------|
A:|77777777777777776777777777777777-----------------------------------|
E:|---------------------------------5----------------7----------------|


CHORUS: x2

G:|-----------------------------------|
D:|-----------------------------------|
A:|4444444444444444-00000000-22222222-|
E:|-----------------------------------|

GAP:

G:|---------------------------------|
D:|---------------------------------|
A:|77777777777777776777777777777777-|
E:|---------------------------------|


VERES: 1ST TIME

G:|-------------------------------------------------------------------|
D:|-------------------------------------------------------------------|
A:|67777777777777776777777777777777-----------------------------------|
E:|---------------------------------5----------------7----------------|

2ND TIME

G:|-------------------------------------------------------------------|
D:|-------------------------------------------------------------------|
A:|77777777777777776777777777777777-----------------------------------|
E:|---------------------------------5555555555555555-7777777777777777-|


CHORUS: x2

G:|-----------------------------------|
D:|-----------------------------------|
A:|4444444444444444-00000000-22222222-|
E:|-----------------------------------|


GAP:
FOLLOW GUITAR AND CRACH CYBALS
G:|--------------------------------------------------|
D:|--------------------------------------------------|
A:|7-7--7-7--7-7--7-7------------4-4--4-4--2-2--2-2--|
E:|--------------------5-5--5-5----------------------|



VERES: X1

G:|-------------------------------------------------------------------|
D:|-------------------------------------------------------------------|
A:|77777777777777776777777777777777-----------------------------------|
E:|---------------------------------5555555555555555-7777777777777777-|


CHORUS: X4

G:|-----------------------------------|
D:|-----------------------------------|
A:|4444444444444444-00000000-22222222-|
E:|-----------------------------------|

END ON:

G:|---------|
D:|---------|
A:|7------7-|
E:|---------|


THATS IT, A GREAT SONG BY THE ADICTS
            
Tabs too difficult? Try these video lessons and learn fast.




comments powered by Disqus
↑ Back to top | Tablatures and chords are parodies/interpretations of the original songs. You may use it for private study, scholarship, research or language learning purposes only