» » »

Adicts, California Tabs (ver.1)

Artists:  A B C D E F G H I J K L M N O P Q R S T U V W X Y Z # 

California Tabs (ver.1)

Adicts Tabs
Rating:
0/5 (0 votes)
California lessons Tabs too difficult? Try these video lessons and learn fast
                Riff/Intro

e---------------------------------------------------------------------|
B---------------------------------------------------------------------|
G-----------------------------------------------5---------------------|
D--------------------5----------------5-7-5-7-7---7-5-7---------------|
A----------5-7-5-7-7---7-5-7--3-3-5-7---------------------------------|
E--3-3-5-7------------------------------------------------------------|

e---------------------------------------------------------------------|
B---------------------------------------------------------------------|
G---------------------------------------------------------------------|
D--------------------5------------------------------------------------|
A----------5-7-5-7-7---7-5-7--3-3-5-7-5-------------------------------|
E--3-3-5-7------------------------------5-5-3-5-----------------------|

                             D
e--------------------------------------|
B--------------------------------------|
G----------------------------7---------| 2x
D----------------------------7-or-D----|
A----------------------------5---------|
E--3-1-3-1-3-1-3--3-1-3-1-3------------|

Verse

e---3-3-------|
B---0-0-------|
G---0-0-------|
D---0-0--2-2--|
A---2-2--2-2--|
E---3-3--0-0--|

Pre-Chorus

e-----------|
B-----------|
G--5-5-5-5--|
D--5-5-5-5--|
A--3-3-3-3--|
E-----------|

Chorus

e---------------------------------------------------------------------|
B---------------------------------------------------------------------|
G-----------------------------------------------5---------------------|
D--------------------5----------------5-7-5-7-7---7-5-7---------------|
A----------5-7-5-7-7---7-5-7--3-3-5-7---------------------------------|
E--3-3-5-7------------------------------------------------------------|

e---------------------------------------------------------------------|
B---------------------------------------------------------------------|
G---------------------------------------------------------------------|
D--------------------5------------------------------------------------|
A----------5-7-5-7-7---7-5-7--3-3-5-7-5-------------------------------|
E--3-3-5-7------------------------------5-5-3-5-----------------------|

2nd time of the chorus
e---------------------------------------------------------------------|
B---------------------------------------------------------------------|
G-----------------------------------------------3---------------------|
D--------------------3----------------3-5-3-5-5---5-3-5---------------|
A----------3-5-3-5-5---5-3-5--1-1-3-5---------------------------------|
E--1-1-3-5------------------------------------------------------------|

e---------------------------------------------------------------------|
B---------------------------------------------------------------------|
G---------------------------------------------------------------------|
D--------------------3------------------------------------------------|
A----------3-5-3-5-5---5-3-5--1-1-3-5-3-------------------------------|
E--1-1-3-5------------------------------3-3-1-3-----------------------|


Bridge

e------------------------------------------------------------|
B------------------------------------------------------------|
G---10-10-10----10-10-10-----------------------10-10---------|
D---10-10-10-12-10-10-10--8-8-8--12--10-10-10--10-10---------|
A---8--8--8--12-8--8--8---8-8-8--12--10-10-10--8--8----------|
E------------10-----------6-6-6--10--8--8--8-----------------|

Break

x2 each
e------------------------------------------------------------|
B------------------------------------------------------------|
G---12-12-12----12-12-12-------------------------12-12-------|
D---12-12-12-14-12-12-12--10-10-10--14--12-12-12-12-12-------|
A---10-10-10-14-10-10-10--10-10-10--14--12-12-12-10-10-------|
E------------12-----------8--8--8---12--10-10-10-------------|


                             D
e--------------------------------------|
B--------------------------------------|
G----------------------------7---------| 2x
D----------------------------7-or-D----|
A----------------------------5---------|
E--3-1-3-1-3-1-3--3-1-3-1-3------------|

e-------------------------------------------------------------------------|
B-------------------------------------------------------------------------|
G---12-12-12----12-12-12--------------------------2x----------------------|
D---12-12-12-14-12-12-12--14-14-14-12-12-14-14-14-----14-14-14-14---14-14-|
A---10-10-10-14-10-10-10--14-14-14-12-12-14-14-14-----14-14-14-14---14-14-|
E------------12-----------12-12-12-10-10-12-12-12-----12-12-12-12---12-12-|
            

comments powered by Disqus
↑ Back to top | Adicts Tabs for California. Lyrics for acoustic guitar and electric guitar. Tablatures and chords are parodies/interpretations of the original songs. You may use it for private study, scholarship, research or language learning purposes only