» » »

Adhesive, Skyscraper Tabs (ver.1)

Artists:  A B C D E F G H I J K L M N O P Q R S T U V W X Y Z # 

Skyscraper Tabs (ver.1)

Adhesive Tabs
 Rating:
4/5 (4 votes)
Skyscraper lessons Tabs too difficult? Try these video lessons and learn fast
                
Verse 
e|---------------------------------------------------------------| 
B|---------------------------------------------------------------| 
G|---------------------------------------------------------------| 
D|------------------------9-9-9-9-9-9-9-9--4-4-4-4-4--5-5-5-5-5--| 
A|--6-6-6-6-6--7-7-7-7-7--7-7-7-7-7-7-7-7--2-2-2-2-2--3-3-3-3-3--| 
E|--4-4-4-4-4--5-5-5-5-5-----------------------------------------| 

e|----------------------------------------------------------------------| 
B|----------------------------------------------------------------------| 
G|----------------------------------------------------------------------| 
D|--6-6-6-6-6-6-6-6-------------------9-9-9-9-9-9-9-9-------------------| 
A|--4-4-4-4-4-4-4-4--7-7-7-7-7-7-7-7--7-7-7-7-7-7-7-7--9-9-9-9-9-9-9-9--| 
E|-------------------5-5-5-5-5-5-5-5-------------------7-7-7-7-7-7-7-7--| 

e|-----------------------------------------------------------------------| 
B|-----------------------------------------------------------------------| 
G|-----------------------------------------------------------------------| 
D|--9-9-9-9-9-9-9-9-------------------6-6-6-6--4-4-4-4-------------------| 
A|--7-7-7-7-7-7-7-7--9-9-9-9-9-9-9-9--4-4-4-4--2-2-2-2--7-7-7-7-7-7-7-7--| 
E|-------------------7-7-7-7-7-7-7-7--------------------5-5-5-5-5-5-5-5--| 

e|-----------------------------------| 
B|-----------------------------------| 
G|-----------------------------------| 
D|--9-9-9-9-9------------------------| 
A|--7-7-7-7-7--9-9-9-9-9--7-7-7-7-7--| 
E|-------------7-7-7-7-7--5-5-5-5-5--| 

Chorus 
e|----------------------------------------------------------------------| 
B|----------------------------------------------------------------------| 
G|----------------------------------------------------------------------| 
D|--6-6-6-6-6-6-6-6------------------------------------9-9-9-9-9-9-9-9--| 
A|--4-4-4-4-4-4-4-4--9-9-9-9-9-9-9-9--7-7-7-7-7-7-7-7--7-7-7-7-7-7-7-7--| 
E|-------------------7-7-7-7-7-7-7-7--5-5-5-5-5-5-5-5-------------------| 

e|----------------------------------------------------------------------| 
B|----------------------------------------------------------------------| 
G|----------------------------------------------------------------------| 
D|--6-6-6-6-6-6-6-6--4-4-4-4-4-4-4-4------------------------------------| 
A|--4-4-4-4-4-4-4-4--2-2-2-2-2-2-2-2--6-6-6-6-6-6-6-6--7-7-7-7-7-7-7-7--| 
E|------------------------------------4-4-4-4-4-4-4-4--5-5-5-5-5-5-5-5--| 

e|-----------------------------------| 
B|-----------------------------------| 
G|-----------------------------------| 
D|--9-9-9-9-9------------------------| 
A|--7-7-7-7-7--9-9-9-9-9--7-7-7-7-7--| 
E|-------------7-7-7-7-7--5-5-5-5-5--| 

Solo 
e|----| 
B|----| 
G|----| ITS STILL A BRETT SOLO DAMMIT!! 
D|----| SOMETIMES...I HATE BRETT! 
A|----| 
E|----| 

Outro 
e|---------------------------------------------------------------| 
B|---------------------------------------------------------------| 
G|---------------------------------------------------------------| 
D|------------------------9-9-9-9-9-9-9-9--4-4-4-4-4--5-5-5-5-5--| 
A|--6-6-6-6-6--7-7-7-7-7--7-7-7-7-7-7-7-7--2-2-2-2-2--3-3-3-3-3--| 
E|--4-4-4-4-4--5-5-5-5-5-----------------------------------------| 

e|----------------------------------------------------------------------| 
B|----------------------------------------------------------------------| 
G|----------------------------------------------------------------------| 
D|--6-6-6-6-6-6-6-6-------------------9-9-9-9-9-9-9-9-------------------| 
A|--4-4-4-4-4-4-4-4--7-7-7-7-7-7-7-7--7-7-7-7-7-7-7-7--9-9-9-9-9-9-9-9--| 
E|-------------------5-5-5-5-5-5-5-5-------------------7-7-7-7-7-7-7-7--| 

e|-----------------------------------------------------------------------| 
B|-----------------------------------------------------------------------| 
G|-----------------------------------------------------------------------| 
D|--9-9-9-9-9-9-9-9-------------------6-6-6-6--4-4-4-4-------------------| 
A|--7-7-7-7-7-7-7-7--9-9-9-9-9-9-9-9--4-4-4-4--2-2-2-2--7-7-7-7-7-7-7-7--| 
E|-------------------7-7-7-7-7-7-7-7--------------------5-5-5-5-5-5-5-5--| 

e|-----------------------------------| 
B|-----------------------------------| 
G|-----------------------------------| 
D|--9-9-9-9-9------------------------| 
A|--7-7-7-7-7--9-9-9-9-9--7-7-7-7-7--| 
E|-------------7-7-7-7-7--5-5-5-5-5--| 

e|--------------7~~--| 
B|-----------6-------| 
G|--------7----------| 
D|-----5-------------| 
A|--5----------------| 
E|-------------------| 
            
Submit corrections

comments powered by Disqus
↑ Back to top | Adhesive Tabs for Skyscraper. Lyrics for acoustic guitar and electric guitar. Tablatures and chords are parodies/interpretations of the original songs. You may use it for private study, scholarship, research or language learning purposes only