» » »

Adhesive, On A Pedestal Tabs (ver.1)

Artists:  A B C D E F G H I J K L M N O P Q R S T U V W X Y Z # 

On A Pedestal Tabs (ver.1)

Adhesive Tabs
Rating:
0/5 (0 votes)
On A Pedestal lessons Tabs too difficult? Try these video lessons and learn fast
                
Intro (x2) 
e|---------------------------------------------------------------| 
B|---------------------------------------------------------------| 
G|---------------------------------------------------------------| 
D|-6--6--5--4---2--2--2--2---2--2--4--2---4--4--4--4-------------| 
A|-6--6--5--4---2--2--2--2---2--2--4--2---4--4--4--4-------------| 
E|-4--4--3--2---0--0--0--0---0--0--2--0---2--2--2--2-------------| 

e|---------------------------------------------------------------| 
B|---------------------------------------------------------------| 
G|---------------------------4--4--------------------------------| 
D|-6--6--5--4---2--2--2--2---4--4--1h2p1--4--4--4--4-------------| 
A|-6--6--5--4---2--2--2--2---2--2---------4--4--4--4-------------| 
E|-4--4--3--2---0--0--0--0----------------2--2--2--2-------------| 

Verse (x4) 
e|---------------------------------------------------------------| 
B|---------------------------------------------------------------| 
G|-4--4--4--4----------------8--8--8--8---9--9--9--9-------------| 
D|-4--4--4--4---4--4--4--4---8--8--8--8---9--9--9--9-------------| 
A|-2--2--2--2---4--4--4--4---6--6--6--6---7--7--7--7-------------| 
E|--------------2--2--2--2---------------------------------------| 

Chorus (x4) 
e|---------------------------------------------------------------| 
B|---------------------------------------------------------------| 
G|---------------------------4--4--4--4--------------------------| 
D|-6--6--6--6---2--2--2--2---4--4--4--4---4--4--4--4-------------| 
A|-6--6--6--6---2--2--2--2---2--2--2--2---4--4--4--4-------------| 
E|-4--4--4--4---0--0--0--0----------------2--2--2--2-------------| 

Intro Octave Higher 
e|--------------------------------------------| 
B|--9--9--9--9---9--9--9--9---9--9---7--7-----| 
G|--x--x--x--x---x--x--x--x---x--x---x--x-----| 
D|--6--6--6--6---6--6--6--6---6--6---4--4-----| 
A|--------------------------------------------| 
E|--------------------------------------------| 

e|----------------------------------------------------| 
B|--9--9--9--9---9--9--9--9---9--9---12-12--11-11-----| 
G|--x--x--x--x---x--x--x--x---x--x---x--x---x--x------| 
D|--6--6--6--6---6--6--6--6---6--6---9--9---8--8------| 
A|----------------------------------------------------| 
E|----------------------------------------------------| 
Verse (x2) 

Verse Octave Higher (x2) 
e|--------------------------------------------------------| 
B|-11-11-11-11--9--9--9--9---10-10-10-10--11-11-11-11-----| 
G|-x--x--x--x---x--x--x--x---x--x--x--x---x--x--x--x------| 
D|-9--9--9--9---6--6--6--6---7--7--7--7---9--9--9--9------| 
A|--------------------------------------------------------| 
E|--------------------------------------------------------| 
Chorus (x4) 

Bridge 
e|---------------------------------------------------------------| 
B|---------------------------------------------------------------| 
G|4-4-4-4-4-4-4-4-----------------6-6-6-6-6-6-6-6----------------| 
D|4-4-4-4-4-4-4-4-2-2-2-2-2-2-2-2-6-6-6-6-6-6-6-6-4-4-4-4-4-4-4-4| 
A|2-2-2-2-2-2-2-2-2-2-2-2-2-2-2-2-4-4-4-4-4-4-4-4-4-4-4-4-4-4-4-4| 
E|----------------0-0-0-0-0-0-0-0-----------------2-2-2-2-2-2-2-2| 

e|---------------------------------------------------------------| 
B|---------------------------------------------------------------| 
G|8-8-8-8-8-8-8-8--------------------4-4-4--4-4-4----------------| 
D|8-8-8-8-8-8-8-8--6-6-6-6-6-6-6-6---4-4-4--4-4-4--4-4-4--4-4-4-4| 
A|6-6-6-6-6-6-6-6--6-6-6-6-6-6-6-6---2-2-2--2-2-2--4-4-4--4-4-4-4| 
E|-----------------4-4-4-4-4-4-4-4-----------------2-2-2--2-2-2-2| 
Chorus (x8) 
            
Submit corrections

comments powered by Disqus
↑ Back to top | Adhesive Tabs for On A Pedestal. Lyrics for acoustic guitar and electric guitar. Tablatures and chords are parodies/interpretations of the original songs. You may use it for private study, scholarship, research or language learning purposes only