» » »

Adept, The Ivory Tower Tabs (ver.1)

Artists:  A B C D E F G H I J K L M N O P Q R S T U V W X Y Z # 

The Ivory Tower Tabs (ver.1)

Adept Tabs
 Rating:
4/5 (4 votes)
The Ivory Tower lessons Tabs too difficult? Try these video lessons and learn fast
1
                (Intro)
Adept - The Ivory Tower (Intro)
Death Dealers 2011

All credits belong to currykill. :)

Tuning: Drop C (CGCFAD)
Around 190 bpm

Guitar I

D|---------------------|-------------------------|
A|----11p10------------|-------------------------|
F|------------10h12----|----------10----10h12-12-|
C|---------------------|-10h12-------------------|
G|-10------10-------10-|-------10----10----------|
C|---------------------|-------------------------|

D|---------------------|----------13-------------|
A|---11p10-------------|-10h11---------10---10---|
F|-------------10h12---|-------------------------|
C|---------------------|-------------------------|
G|-10-------10-------10|-------10---10---10------|
C|---------------------|-------------------------|

D|---------------------|-------------------------|
A|-11-11p10------------|-------------------------|
F|-------------10p12---|---------10----10h12-12--|
C|---------------------|-10h12-------------------|
G|----------10-------10|-------10---10-----------|
C|---------------------|-------------------------|

D|---------------------|----------13----13/15-15-|
A|----11p10------------|-10h11-------------------|
F|------------10h12----|-------------------------|
C|---------------------|-------------------------|
G|-10-------10-------10|-------10----10----------|
C|---------------------|-------------------------|

D|---------------------|-------------------------|
A|----11p10------------|-------------------------|
F|-------------10h12---|----------10----10h12-12-|
C|---------------------|10h12--------------------|
G|-10-------10------10-|-------10----10----------|
C|---------------------|-------------------------|

D|---------------------|-----------13------------|
A|---11p10-------------|--10h11---------10---10--|
F|------------10h12----|-------------------------|
C|---------------------|-------------------------|
G|-10------10-------10-|-------10---10---10------|
C|---------------------|-------------------------|

D|---------------------|-------------------------|
A|-11-11p10------------|-------------------------|
F|-------------10h12---|----------10----10h12-12-|
C|---------------------|10h12--------------------|
G|----------10------10-|-------10----10----------|
C|---------------------|-------------------------|

D|---------------------|
A|----11p10------------|
F|-------------10h12---|
C|---------------------|
G|-10-------10------10-|
C|---------------------|

Guitar II
D|------------|-----------|------------|
A|------------|-----------|------------|
F|------------|-----------|------------|
C|-5-55-55-55-|-5-55-5-55-|-5-55-55-55-|
G|-5-55-55-55-|-5-55-5-55-|-5-55-55-55-|
C|-5-55-55-55-|-5-55-5-55-|-5-55-55-55-|

D|-------------------|---------------------|
A|-------------------|---------------------|
F|-7/10-101010101010-|-12-12-12-12-12-12-12|
C|-x-x--x-x-x-x-x-x--|-x--x--x--x--x--x--x-|
G|-5/8--8-8-8-8-8-8--|-10-10-10-10-10-10-10|
C|-------------------|---------------------|

D|----------------------------|
A|----------------------------|
F|-12/14-14-14-14-14-14-14----|
C|-x--x--x--x--x--x--x--x-----|
G|-10/12-12-12-12-12-12-12----|
C|----------------------------|

D|----------------------------|
A|----------------------------|
F|-14\12-12-12-12-12-12-12----|
C|-x--x--x--x--x--x--x--x-----|
G|-12\10-10-10-10-10-10-10----|
C|----------------------------|


D|------------|-----------|------------|
A|------------|-----------|------------|
F|------------|-----------|------------|
C|-5-55-55-55-|-5-55-5-55-|-5-55-55-55-|
G|-5-55-55-55-|-5-55-5-55-|-5-55-55-55-|
C|-5-55-55-55-|-5-55-5-55-|-5-55-55-55-|


D|-------------------|---------------------|
A|-------------------|---------------------|
F|-1010101010101010--|-12-12-12-12-12-12-12|
C|-x-x-x-x-x-x-x-x---|-x--x--x--x--x--x--x-|
G|-8-8-8-8-8-8-8-8---|-10-10-10-10-10-10-10|
C|-------------------|---------------------|


D|--------------------------|-------------------------|
A|--------------------------|-------------------------|
F|-12/14-14-14-14-14-14-14--|-14/15-15-15-15-15-15-15-|
C|-x--x--x--x--x--x--x--x---|-x--x--x--x--x--x--x--x--|
G|-10/12-12-12-12-12-12-12--|-12/13-13-13-13-13-13-13-|
C|--------------------------|-------------------------|
            
Submit corrections

comments powered by Disqus
↑ Back to top | Adept Tabs for The Ivory Tower. Lyrics for acoustic guitar and electric guitar. 1 Tablatures and chords are parodies/interpretations of the original songs. You may use it for private study, scholarship, research or language learning purposes only