» » »

An Ode To Norah Barnes Tabs (ver.1)

Artists:  A B C D E F G H I J K L M N O P Q R S T U V W X Y Z # 

An Ode To Norah Barnes Tabs (ver.1)

Adept
Rating:
2/5 (1 vote)

Tabs too difficult? Try these video lessons and learn fast.
                I'm Almost a 100% sure that, this is how it goes.


I'm not sure about the rhythm, but you can just listen to the song while playing and 
you'll prabaly figure it out. Enjoy!


Drop D Tuning (DADGBe)

\ = Slide Down
~ = Let ring

Solo
e|------------------------------------------------------------------|
G|------------------------------------------------------------------|
B|--------------------12-------------10------------9-------------10-|
D|--------------------x--------------x-------------x-------------x--|
A|-------------0-0--0-10-0----0-0--0-8-0----0-0--0-7-0----0-0--0-8--|
D|--0-0--0-0---0-0--0----000000-0--0---000000-0--0---000000-0--0----|
 04.12
Repeat 4x


Ending
----------------------------------------------------------------------|
----------------------------------------------------------------------|
----------------------------------------------------8-----------------|
-----------------------------7---------------0------x---------------0-|
-0--0---0--0---0\-0--0---0-0-5-0-0---------0-0--0-0-6 0-0---------0-0-|
-0--0---0--0---0\-0--0---0-0---0-0-000-000-0-0--0-0---0-0-000-000-0-0-|


 -------------------------------------------------------------|
 ------------------------------9~-----------------------------|
 ------------------------------12~----------------------------|
 -----1---------------0---------------------------------------|
 -0-0-1-0-0---------0-0---------------------------------------|
 -0-0-1-0-0-000-000-0-0--0-000--------------------------------|
            
Tabs too difficult? Try these video lessons and learn fast.


comments powered by Disqus
↑ Back to top | Tablatures and chords are parodies/interpretations of the original songs. You may use it for private study, scholarship, research or language learning purposes only