» » »

An Era Of Treachery Tabs (ver.1)

Artists:  A B C D E F G H I J K L M N O P Q R S T U V W X Y Z # 

An Era Of Treachery Tabs (ver.1)

Adept
Rating:
4/5 (6 votes)

Hard to play? Try these video lessons and learn fast.
                Adept: an era of treachery
Tuning: Drop Standard

IVE LEARN THIS BY EAR SO ITS NOT PERFECT! ;D




Intro (this is not the exact tempo)
|-----------------------------------------------------------------------|
|-----------------------------------------------------------------------|
|-------------------------------------------------------------7b8-------|
|----------------------------------------------------------5~~----------|
|--0000--0000--000-000000-000-000-0-0-00000--00000000-0000--------------|
|--0000--0000--000-000000-000-000-0-0-00000--00000000-0000--------------|

|-----------------------------------------------------------------------|
|-----------------------------------------------------------------------|
|-----------------------------------------------------------------------|
|-----------------------------------------------------------------------|
|--1111--1111-11111-1-1-1-111111-11--11111-111----111111111--0---0------|
|--1111--1111-11111-1-1-1-111111-11--11111-111----111111111--0---0------|

Ladies and gentlemens, friends and foe's.... (verse solo)
|----------------------------------------8------------------------------|
|-----6p5-----8-6-5-6p5---6p5--------5-6---5h6-6p5-----8-6-5-6p5---6p5--|
|---------5h7-----------5-----5h7-77---------------5h7-----------5------|
|-----------------------------------------------------------------------|
|--0--------------------------------------------------------------------|
|--0--------------------------------------------------------------------|

|-----------------------------------------------------------------------|
|---------6p5-6p5-------------------------------------------------------|
|--5h7-77---------------------------------------------------------------|
|-----------------------------------------------------------------------|
|-----------------------------------------------------------------------|
|-----------------------------------------------------------------------|

Verse Guitar 1 Repeat "Ladies and gentlemens" (verse solo)

Verse guitar 2
|-----------------------------------------------------------------------|
|-----------------------------------------------------------------------|
|-----------------------------------------------------------------------|
|-----------------------------------------------------------------------| x2
|--00000000000000000000000000000000-3333333333333333-555555555555555----|
|--00000000000000000000000000000000-3333333333333333-555555555555555----|

Before Chours
|-----------------------------------------------------------------------|
|------------------------------------------------------9--9-9--9-9------|
|-----------------------------------------7--7-7--7-7--7--7-7--7-7------|
|-----------------------------------------5--5-5--5-5-------------------|
|--0------------------3-3--3-3--3-3--3-3--------------------------------|
|--0------------------3-3--3-3--2-2--2-2--------------------------------|

Chours
|-----------------------------------------------------------------------|
|-----------------------------------------------------------------------|
|-----------------------------------------------------------------------| x2
|-----------------------------------------------------------------------|
|--7-7-7-7-7-7-7-7-7-7--5-5-5-5-5-5-5-5-5-5--3-3-3-3-3-3-3-3-3-3-3-3-3--|
|--7-7-7-7-7-7-7-7-7-7--5-5-5-5-5-5-5-5-5-5--3-3-3-3-3-3-3-3-3-3-3-3-3--|


|-----------------------------------------------------------------------|
|-----------------------------------------------------------------------|
|-----------------------------------------------------------------------|
|-----------------------------------------------------------------------|
|--0-0-000-0-------------0-0-000-0--------------------------------------|
|--0-0-000-0--0-0-000-0-------------------------------------------------|

Verse 2

Guitar 1 (little tricky to get it right) i dont know how to do it

then the (verse solo) kicks in again

Verse 2 Guitar 2
|-----------------------------------------------------------------------|
|-----------------------------------------------------------------------|
|-----------------------------------------------------------------------|
|-----------------------------------------------------------------------| x4
|--00000000000000000000000000000000-3333333333333333-555555555555555----|
|--00000000000000000000000000000000-3333333333333333-555555555555555----|

Before Chours 2
|-----------------------------------------------------------------------|
|------------------------------------------------------9--9-9--9-9------|
|-----------------------------------------7--7-7--7-7--7--7-7--7-7------|
|-----------------------------------------5--5-5--5-5-------------------|
|--0-------000--------3-3--3-3------------------------------------------|
|--0-------000--------3-3--3-3------------------------------------------|

Chours 2
|-----------------------------------------------------------------------|
|-----------------------------------------------------------------------|
|-----------------------------------------------------------------------| x4
|-----------------------------------------------------------------------|
|--7-7-7-7-7-7-7-7-7-7--5-5-5-5-5-5-5-5-5-5--3-3-3-3-3-3-3-3-3-3-3-3-3--|
|--7-7-7-7-7-7-7-7-7-7--5-5-5-5-5-5-5-5-5-5--3-3-3-3-3-3-3-3-3-3-3-3-3--|

the slow part 
|-----------------------------------------------------------------------|
|----8--5--6------------------------------------------------------------|
|--7--------------------------------------------------------------------|
|-------------8----7----12----------------------------------------------|
|-----------------------------7--8--------------------------------------|
|-----------------------------------10----------------------------------|

Sorry, still learning the "solo" part 

After "solo" part Guitar 1
|-----------------------------------------------------------------------|
|-----------------------------------------------------------------------|
|-----------------------------------------------------------------------|
|-----------------------------------------------------------------------| x6
|--3---------3--------0-0--0-0-----3------5-----------------------------|
|--3---------2--------0-0--0-0-----3------5-----------------------------|

Guitar 2
|-----------------------------------------------------------------------|
|-----------------------------------------------------------------------|
|--5-5-5-5-5-5-5--5-5-5-5-5-5-5--2-2-2-2-2-2-2--5-5-5-5--7-7-7-7-7-7-7--|
|--3-3-3-3-3-3-3--2-2-2-2-2-2-2--0-0-0-0-0-0-0--3-3-3-3--5-5-5-5-5-5-5--| x4 
|-----------------------------------------------------------------------|
|-----------------------------------------------------------------------|

after 4 of those solo part goies in again,

end...
|-----------------------------------------------------------------------|
|-----------------------------------------------------------------------|
|-----------------------------------------------------------------------|
|-----------------------------------------------------------------------|
|--0-0--0-0-0-0--0------------------------------------------------------|
|--0-0--0-0-0-0--0------------------------------------------------------|

Thx for wathcing!
            
Hard to play? Try these video lessons and learn fast. | Correct




comments powered by Disqus
↑ Back to top | Tablatures and chords are parodies/interpretations of the original songs. You may use it for private study, scholarship, research or language learning purposes only