» » »

Adema, Unstable Tabs (ver.4)

Artists:  A B C D E F G H I J K L M N O P Q R S T U V W X Y Z # 

Unstable Tabs (ver.4)

Adema Tabs
 Rating:
4/5 (4 votes)
Unstable lessons Tabs too difficult? Try these video lessons and learn fast
1
                Intro
E|--------------------------------------------------------------------
B|--------------------------------------------------------------------
G|--------------------------------------------------------------------
D|-6-6--6--9-9-9-9--9-6--6--9-9-9-9--9-7--7--7/9-9-9--9-4--4--4-5-5-5-
A|-4-4--4--7-7-7-7--7-4--4--7-7-7-7--7-7--7--7/9-9-9--9-2--2--2-3-3-3-
D|-6-6--6--9-9-9-9--9-6--6--9-9-9-9--9-7--7--7/9-9-9--9-4--4--4-5-5-5-

E|--------------------------------------------------------------------
B|--------------------------------------------------------------------
G|--------------------------------------------------------------------
D|-5/6--6--9-9-9-9--9-6--6--9-9-9-9--9-7--7--7/9-9-9--9-4--4--4-5-5-5-
A|-3/4--4--7-7-7-7--7-4--4--7-7-7-7--7-7--7--7/9-9-9--9-2--2--2-3-3-3-
D|-5/6--6--9-9-9-9--9-6--6--9-9-9-9--9-7--7--7/9-9-9--9-4--4--4-5-5-5-

Verse (sound effect tabbed to guitar)
E|--------------------------------
B|--------------------------------
G|--------------------------------
D|--------------------------------
A|-4/5-4--4-2-4-5-4-2-4/2---------
D|-------------------------------- x8

Pre-Chorus Fill (quietly)
E|-----------------
B|-----------------
G|-----------------
D|-6-------4---9---
A|-4-------2---7---
D|-6-------4---9---

Chorus
E|-------------------------------------------------------------------------
B|-------------------------------------------------------------------------
G|-------------------------------------------------------------------------
D|-6-6--4/5-6-6--4/5-6-6--4/5-7-7--6/7-6-6--4/5-6-6--4/5-6-6--5/6-4-4--4-4-
A|-4-4--2/3-4-4--2/3-4-4--2/3-5-5--4/5-4-4--2/3-4-4--2/3-4-4--3/4-2-2--2-2-
D|-6-6--4/5-6-6--4/5-6-6--4/5-7-7--6/7-6-6--4/5-6-6--4/5-6-6--5/6-4-4--4-4-

E|-------------------------------------------------------------------------
B|-------------------------------------------------------------------------
G|-------------------------------------------------------------------------
D|-6-6--4/5-6-6--4/5-6-6--4/5-5-5--4/5-6-6--4/5-6-6--4/5-6-6--5/6-4-4--4-4-
A|-4-4--2/3-4-4--2/3-4-4--2/3-5-5--4/5-4-4--2/3-4-4--2/3-4-4--3/4-2-2--2-2-
D|-6-6--4/5-6-6--4/5-6-6--4/5-5-5--4/5-6-6--4/5-6-6--4/5-6-6--5/6-4-4--4-4-

Verse (sound effect tabbed to guitar)
E|--------------------------------
B|--------------------------------
G|--------------------------------
D|--------------------------------
A|-4/5-4--4-2-4-5-4-2-4/2---------
D|-------------------------------- x8

Pre-Chorus Fill (quietly)
E|-----------------
B|-----------------
G|-----------------
D|-6-------4---9---
A|-4-------2---7---
D|-6-------4---9---

Second Chorus
E|-------------------------------------------------------------------------
B|-------------------------------------------------------------------------
G|-------------------------------------------------------------------------
D|-6-6--4/5-6-6--4/5-6-6--4/5-7-7--6/7-6-6--4/5-6-6--4/5-6-6--5/6-4-4--4-4-
A|-4-4--2/3-4-4--2/3-4-4--2/3-5-5--4/5-4-4--2/3-4-4--2/3-4-4--3/4-2-2--2-2-
D|-6-6--4/5-6-6--4/5-6-6--4/5-7-7--6/7-6-6--4/5-6-6--4/5-6-6--5/6-4-4--4-4-

E|-------------------------------------------------------------------------
B|-------------------------------------------------------------------------
G|-------------------------------------------------------------------------
D|-6-6--4/5-6-6--4/5-6-6--4/5-5-5--4/5-6-6--4/5-6-6--4/5-6-6--5/6-4-4--4-4-
A|-4-4--2/3-4-4--2/3-4-4--2/3-5-5--4/5-4-4--2/3-4-4--2/3-4-4--3/4-2-2--2-2-
D|-6-6--4/5-6-6--4/5-6-6--4/5-5-5--4/5-6-6--4/5-6-6--4/5-6-6--5/6-4-4--4-4-

E|-------------------------------------
B|-------------------------------------
G|-------------------------------------
D|-6-6--4/5-6-6--4/5-6-6--4/5-7-7--6/7-
A|-4-4--2/3-4-4--2/3-4-4--2/3-5-5--4/5-
D|-6-6--4/5-6-6--4/5-6-6--4/5-7-7--6/7-

Intro (again)
E|--------------------------------------------------------------------
B|--------------------------------------------------------------------
G|--------------------------------------------------------------------
D|-6-6--6--9-9-9-9--9-6--6--9-9-9-9--9-7--7--7/9-9-9--9-4--4--4-5-5-5-
A|-4-4--4--7-7-7-7--7-4--4--7-7-7-7--7-7--7--7/9-9-9--9-2--2--2-3-3-3-
D|-6-6--6--9-9-9-9--9-6--6--9-9-9-9--9-7--7--7/9-9-9--9-4--4--4-5-5-5-

E|--------------------------------------------------------------------
B|--------------------------------------------------------------------
G|--------------------------------------------------------------------
D|-5/6--6--9-9-9-9--9-6--6--9-9-9-9--9-7--7--7/9-9-9--9-4--4--4-5-5-5-
A|-3/4--4--7-7-7-7--7-4--4--7-7-7-7--7-7--7--7/9-9-9--9-2--2--2-3-3-3-
D|-5/6--6--9-9-9-9--9-6--6--9-9-9-9--9-7--7--7/9-9-9--9-4--4--4-5-5-5-

Bridge
E|-----------------
B|-----------------
G|-----------------
D|-6---4---7---4---
A|-4---2---5---4---
D|-6---4---7---4---

Chorus
E|-------------------------------------------------------------------------
B|-------------------------------------------------------------------------
G|-------------------------------------------------------------------------
D|-6-6--4/5-6-6--4/5-6-6--4/5-7-7--6/7-6-6--4/5-6-6--4/5-6-6--5/6-4-4--4-4-
A|-4-4--2/3-4-4--2/3-4-4--2/3-5-5--4/5-4-4--2/3-4-4--2/3-4-4--3/4-2-2--2-2-
D|-6-6--4/5-6-6--4/5-6-6--4/5-7-7--6/7-6-6--4/5-6-6--4/5-6-6--5/6-4-4--4-4-

E|-------------------------------------------------------------------------
B|-------------------------------------------------------------------------
G|-------------------------------------------------------------------------
D|-6-6--4/5-6-6--4/5-6-6--4/5-5-5--4/5-6-6--4/5-6-6--4/5-6-6--5/6-4-4--4-4-
A|-4-4--2/3-4-4--2/3-4-4--2/3-5-5--4/5-4-4--2/3-4-4--2/3-4-4--3/4-2-2--2-2-
D|-6-6--4/5-6-6--4/5-6-6--4/5-5-5--4/5-6-6--4/5-6-6--4/5-6-6--5/6-4-4--4-4-

E|-------------------------------------------------------------------------
B|-------------------------------------------------------------------------
G|-------------------------------------------------------------------------
D|-6-6--4/5-6-6--4/5-6-6--4/5-7-7--6/7-6-6--4/5-6-6--4/5-6-6--5/6-4-4--4-4-
A|-4-4--2/3-4-4--2/3-4-4--2/3-5-5--4/5-4-4--2/3-4-4--2/3-4-4--3/4-2-2--2-2-
D|-6-6--4/5-6-6--4/5-6-6--4/5-7-7--6/7-6-6--4/5-6-6--4/5-6-6--5/6-4-4--4-4-

E|-------------------------------------------------------------------------
B|-------------------------------------------------------------------------
G|-------------------------------------------------------------------------
D|-6-6--4/5-6-6--4/5-6-6--4/5-5-5--4/5-6-6--4/5-6-6--4/5-6-6--5/6-4-4--4-4-
A|-4-4--2/3-4-4--2/3-4-4--2/3-5-5--4/5-4-4--2/3-4-4--2/3-4-4--3/4-2-2--2-2-
D|-6-6--4/5-6-6--4/5-6-6--4/5-5-5--4/5-6-6--4/5-6-6--4/5-6-6--5/6-4-4--4-4-

E|-----------------------------------------------------------
B|-----------------------------------------------------------
G|-----------------------------------------------------------
D|-6-6--4/5-6-6--4/5-6-6--4/5-7-7--6/7-6-6--4/5-6-6--4/5-6\0-
A|-4-4--2/3-4-4--2/3-4-4--2/3-5-5--4/5-4-4--2/3-4-4--2/3-4\0-
D|-6-6--4/5-6-6--4/5-6-6--4/5-7-7--6/7-6-6--4/5-6-6--4/5-6\0-
            
Submit corrections

comments powered by Disqus
↑ Back to top | Adema Tabs for Unstable. Lyrics for acoustic guitar and electric guitar. 1 Tablatures and chords are parodies/interpretations of the original songs. You may use it for private study, scholarship, research or language learning purposes only