» » »

Speculum Tabs (ver.3)

Artists:  A B C D E F G H I J K L M N O P Q R S T U V W X Y Z # 

Speculum Tabs (ver.3)

Adema
Rating:
0/5 (0 votes)

Tabs too difficult? Try these video lessons and learn fast.
                h = HAMMER ON 
p = PULL OFF 
s = SLIDE 
* = LET NOTE RING OUT 


INTRO: 

NOTE: NO GUITARS IN THE INTRO 

BASS PLAYS THIS ONCE 

G|--------------------------------------------| 
D|--------------------------------------------| 
A|--------------------------------------------| 
E|-66--8s9s8-66--8s9s8-66--8s9s8-66--8s9s8----| 

VERSE: 

BASS IMEDIATELY GOES INTO PLAYING THIS FOUR TIMES FOR FIRST VERSE. 

PLAY THIS RIFF ONCE AFTER THE FIRST CHORUS AND THEN FOUR MORE TIMES 
FOR VERSE II. 

G|--------------------------------------------| 
D|--------------------------------------------| 
A|--------------------------------------------| 
E|-6*--14*--9*--13*---------------------------| 

GUITARS PLAY THIS FOUR TIMES FOR VERSE I. 

PLAY THIS RIFF ONCE AFTER THE FIRST CHORUS AND THEN FOUR MORE TIMES 
FOR VERSE II. 

NOTE TO GUITARS: PLAY CLEAN WITH CHORUS EFFECTS. IF YOU WANT TO MAKE  
THE SONG SOUND ALMOST PERFECT, TRY FADING THE VOLUME IN AND OUT. 

e|--------------------------------------------| 
B|-------2---------------6--------------------| 
G|-----3---------3-----6---------2------------| 
D|---3---------4-----6---------3--------------| 
A|-1---------4-----4---------3----------------| 
E|---------2---------------1------------------| 

CHORUS: 

GUITARS PLAY THIS WITH HEAVY DISTORTION TWICE FOR THE 
FIRST CHORUS AND TWICE FOR CHORUS II AND III. 

e|--------------------------------------------| 
B|--------------------------------------------| 
G|--------------------------------------------| 
D|-----------666------------------------------| 
A|-888--444--444-333--------------------------| 
E|-666--222------111--------------------------| 

BASS PLAYS THIS TWICE FOR THE FIRST CHORUS AND TWICE FOR 
CHORUS II AND III. 

G|--------------------------------------------| 
D|--------------------------------------------| 
A|--------------------------------------------| 
E|-666--14-14-14--999--13-13-13---------------| 

PRE SOLO: 

GUITARS LET THE LAST NOTE OF CHORUS II RING OUT WHILE BASS  
PLAYS INTRO RIFF ONCE. 

SOLO: 

BASS AND GUITAR ONE PLAY CHORUS RIFF TWICE. 

GUITAR II PLAYS THIS TWICE FOR SOLO: 

e|--------------------------------------------| 
B|--------------------------------------------| 
G|--------------------------------------------| 
D|-11p10-10p8-8--8s10s11-11p10-10-s15--16p15--| 
A|--------------------------------------------| 
E|--------------------------------------------|
            
Tabs too difficult? Try these video lessons and learn fast.




comments powered by Disqus
↑ Back to top | Tablatures and chords are parodies/interpretations of the original songs. You may use it for private study, scholarship, research or language learning purposes only