» » »

Adema, Speculum Tabs (ver.1)

Artists:  A B C D E F G H I J K L M N O P Q R S T U V W X Y Z # 

Speculum Tabs (ver.1)

Adema Tabs
 Rating:
4/5 (4 votes)
Speculum lessons Tabs too difficult? Try these video lessons and learn fast
                PROPS GO TO: Lisa R. Manela


Standard Tuning :)
Verse 1: Clean sound
----------------------------------------------
------2---------------------------------------
------3------------6----------------2---------
---3-------------------6----------------3-----
-1--------------4---------------3----------3--
---------2-------------------1----------------Repeat 2x


----------------------------------------------
--------2-------------------6-----------------
------3------------3------6----------2--------
----3------------4------6----------3----------
--1------------4------4----------3------------
-------------2-----------------1--------------1x

--------------------------------------1----------
-------2--------------------6------------1-------
-----3-----------3--------6-----------------2----
---3-----------4--------6---------------------3--
-1-----------4--------4-----------3--------------
-----------2--------------------1----------------
                                     pm.........


Chorus: Distorted sound

-----------------------
-----------------------
-----------------------
---------66------------
-88--44--44---33-------
-66--22-------11-------repeat as needed


Before Solo
----------
----------
----------
-88-------5x
-88-------
-66-------


During Solo
------------------
------------------
---------66-------
-88--44--66--33---
-88--44--44--33---
-66--22------11---

p= pull off /=slide 
---------------------------------------------
---------------------------------------------
---------------------------------------------
---------------------------------------------
-1--4---4p3-4p3-6/8---8/9/8--4p3-4p3---------
---------------------------------------------

-----------------------------------
-----------------------------------
-----------------------------------
-----------------------------------
-1-3-4-4p3-4p3-6/8--8/9/8-4p3-4p3--
----------------------------------


Thats all! It mostly repeats itself so its not hard to figure the order out.
            
Submit corrections

comments powered by Disqus
↑ Back to top | Adema Tabs for Speculum. Lyrics for acoustic guitar and electric guitar. Tablatures and chords are parodies/interpretations of the original songs. You may use it for private study, scholarship, research or language learning purposes only