>
 >
So Fortunate

So Fortunate Guitar Tabs

Adema - So Fortunate chords, tabs, tablatures, lyrics

Guitar lessons | Add/correct | Request | Top 50 tabs Artists:  A B C D E F G H I J K L M N O P Q R S T U V W X Y Z 0-9

So Fortunate Guitar Tabs – Adema

CD, Sheet music, Poster

Do you like So Fortunate? Share with your friends now
Tabs
Band:Adema
Tuning:Standard


Intro
e|----------------0-----0-------------------------------------| x6
B|----------0-------0-----0------------------0------0---------|
G|------6-----6-------6-----6----------3-------3------3-------|
D|----6---6-----6------------------4-----4-------4------4-----|
A|--4----------------------------4---4-----4------------------|
E|-----------------------------2------------------------------| (part 1)

I never thought I was strong enough, to handle raising my own son
e|-0--0--0--0--0--0--0--0--0--0---0--0--0--0--0--0--0--0--0--0----| x4
B|-0--0--0--0--0--0--0--0--0--0---0--0--0--0--0--0--0--0--0--0----|
G|-6--6--6--6--6--6--6--6--6--6---3--3--3--3--3--3--3--3--3--3----|
D|-6--6--6--6--6--6--6--6--6--6---4--4--4--4--4--4--4--4--4--4----|
A|-4--4--4--4--4--4--4--4--4--4---4--4--4--4--4--4--4--4--4--4----|
E|--------------------------------2--2--2--2--2--2--2--2--2--2----| (part 2)


Nothings gonna change my love for you
e|----------------------------------------------------------------| x1
B|----------------------------------------------------------------|
G|--6\4-4-4-4--2-2-2-2--------------------------------------------|
D|--6\4-4-4-4--2-2-2-2--2-2-2-2-2-2--2-4-4-4-4--2-2-2-2--4-4-4-4--|
A|--4\2-2-2-2--0-0-0-0--2-2-2-2-2-2--2-4-4-4-4--2-2-2-2--4-4-4-4--|
E|----------------------0-0-0-0-0-0--0-2-2-2-2--0-0-0-0--2-2-2-2--| (part 3)

I love my child, he's got his mother's smile
e|--0-0-0--0--0--0-0-0-0-0--0-0-0--0-0-0--0-0-0--x-x-x-x-x-x-x----| x2
B|--0-0-0--0--0--0-0-0-0-0--0-0-0--0-0-0--0-0-0--x-x-x-x-x-x-x----|
G|--2-2-2--1--1--3-3-3-3-3--2-2-2--3-3-3--1-1-1--4-4-4-4-4-4-4----|
D|--2-2-2--2--2--4-4-4-4-4--2-2-2--4-4-4--2-2-2--4-4-4-4-4-4-4----|
A|--0-0-0--2--2--4-4-4-4-4--0-0-0--4-4-4--2-2-2--2-2-2-2-2-2-2----|
E|---------0--0--2-2-2-2-2---------2-2-2--0-0-0--x-x-x-x-x-x-x----| (part 4)

Song Order:1.(part 1)
           2.(part 1)/(part 2)
           3.(part 3)
           4.(part 4) 
           5.(part 1)/(part 2)
           6.(part 3)
           7.(part 4) w/synthesizer
           8.(part 3) w/heavy distortion
           9.(part 4) w/synthesizer
           





Comments


Popular Adema tabs & chords
Speculum Bass Tabs
Close Friends Tabs
Everyone 2 Tabs
Needles 1 Tabs
Planets Tabs
Rip The Heart Out Of Me Tabs
The Way You Like It 3 Tabs
Unstable 2 Tabs
Until Now Tabs
Speculum Ukulele


Song lyrics



↑ Back to top | Tablatures and chords are parodies/interpretations of the original songs. You may use it for private study, scholarship, research or language learning purposes only
© 2014 AZChords.com Contact us | Privacy policy | DMCA | Add/correct tabs | Request tabs | Top 50 tabs