» » »

Skin Tabs (ver.1)

Artists:  A B C D E F G H I J K L M N O P Q R S T U V W X Y Z # 

Skin Tabs (ver.1)

Adema
Rating:
4/5 (3 votes)

Hard to play? Try these video lessons and learn fast.
                -------------------------------------------------------------------------------
-------------------------------------------------------------------------------

Tuning: Drop D

Verse (Played with some kind of wah-echo pedal).
e|---------------------------------------------------------------------------|
B|--15~~-----10h11-10h11p10---10-10-10-10-10~--------------------------------|
G|---------------------------------------------------------------------------|
D|---------------------------------------------------------------------------|
A|---------------------------------------------------------------------------|
D|---------------------------------------------------------------------------|
Sorry couldn’t tab out the weird stuff playing in the background of the verse.
I don’t think that’s even guitar.

Verse Break 
e|---------------------------------------------------------------------------|
B|---------------------------------------------------------------------------|
G|---------------------------------------------------------------------------|
D|--1-0-0--0-1-0-0--0-1-0----------------------------------------------------|
A|--1-0-0--0-1-0-0--0-1-0----------------------------------------------------|
D|--1-0-0--0-1-0-0--0-1-0----------------------------------------------------|

Pre-chorus
e|---------------------------------------------------------------------------|
B|---------------------------------------------------------------------------|
G|---------------------------------------------------------------------------|
D|--1-1-1-1---1-1-1-1---1-1--------------------------------------------------|
A|--1-1-1-1---1-1-1-1---1-1--------------------------------------------------|
D|--1-1-1-1---1-1-1-1---1-1--------------------------------------------------|

Chorus
Guitar 1
e|---------------------------------------------------------------------------|
B|---------------------------------------------------------------------------|
G|---------------------------------------------------------------------------|
D|--0-------1-------------0-------1------------------------------------------|
A|--0-------1-------------0-------1------------------------------------------|
D|--0-------1-------------0-------1------------------------------------------|

Guitar 2
e|---------------------------------------------------------------------------|
B|---------------------------------------------------------------------------|
G|---------------8--10-----------------8--10---------------------------------|
D|--0-------1----x-—x-----0-------1----x--x----------------------------------|
A|--0-------1----6--8-----0-------1----6--8----------------------------------|
D|--0-------1-------------0-------1------------------------------------------|

Guitar 1
e|---------------------------------------------------------------------------|
B|---------------------------------------------------------------------------|
G|---------------------------------------------------------------------------|
D|--0-------1-------------0-0-----1-1----------------------------------------|
A|--0-------1-------------0-0-----1-1----------------------------------------|
D|--0-------1-------------0-0-----1-1----------------------------------------|

Guitar 2
e|---------------------------------------------------------------------------|
B|---------------------------------------------------------------------------|
G|---------------8—-10-------------------------------------------------------|
D|--0-------1----x--x-----0-0-----1-1----------------------------------------|
A|--0-------1----6--8-----0-0-----1-1----------------------------------------|
D|--0-------1-------------0-0-----1-1----------------------------------------|

Pre-chorus 2
e|---------------------------------------------------------------------------|
B|---------------------------------------------------------------------------|
G|---------------------------------------------------------------------------|
D|--1-0-0--0-1-0-0--0-1-0----1-0-0--0-1-0-0--0-1-0---------------------------|
A|--1-0-0--0-1-0-0--0-1-0----1-0-0--0-1-0-0--0-1-0---------------------------|
D|--1-0-0--0-1-0-0--0-1-0----1-0-0--0-1-0-0--0-1-0---------------------------|



Bridge
e|---------------------------------------------------------------------------|
B|---------------------------------------------------------------------------|
G|---------------------------------------------------------------------------|
D|--8-8-8--7-7-7--3---1-0-0--0-1-0-0--0-1-0----------------------------------|
A|--8-8-8--7-7-7--3---1-0-0--0-1-0-0--0-1-0----------------------------------|
D|--8-8-8--7-7-7--3---1-0-0--0-1-0-0--0-1-0----------------------------------|

Interlude
e|---------------------------------------------------------------------------|
B|---------------------------------------------------------------------------|
G|---------------------------------------------------------------------------|
D|--1-0-0--0-1-0-0--0-1-0----1-0-0--0-1-0-0--0-1-0---------------------------|
A|--1-0-0--0-1-0-0--0-1-0----1-0-0--0-1-0-0--0-1-0---------------------------|
D|--1-0-0--0-1-0-0--0-1-0----1-0-0--0-1-0-0--0-1-0---------------------------|

e|---------------------------------------------------------------------------|
B|---------------------------------------------------------------------------|
G|---------------------------------------------------------------------------|
D|--1-0-0--0-1-0-0--0-1-0----1-0-0--0-1-0-0--0-------------------------------|
A|--1-0-0--0-1-0-0--0-1-0----1-0-0--0-1-0-0--0-3-3-3-3-----------------------|
D|--1-0-0--0-1-0-0--0-1-0----1-0-0--0-1-0-0--0-3-3-3-3-----------------------|
                                            PM . . . .

e|---------------------------------------------------------------------------|
B|---------------------------------------------------------------------------|
G|---------------------------------------------------------------------------|
D|--1-0-0--0-1-0-0--0-1-0----1-0-0--0-1-0-0--0-1-0---------------------------|
A|--1-0-0--0-1-0-0--0-1-0----1-0-0--0-1-0-0--0-1-0---------------------------|
D|--1-0-0--0-1-0-0--0-1-0----1-0-0--0-1-0-0--0-1-0---------------------------|

e|---------------------------------------------------------------------------|
B|---------------------------------------------------------------------------|
G|---------------------------------------------------------------------------|
D|--1-0-0--0-1-0-0--0-1-0----1-0-0--0-1-0-0--0—1~----------------------------|
A|--1-0-0--0-1-0-0--0-1-0----1-0-0--0-1-0-0--0—1~----------------------------|
D|--1-0-0--0-1-0-0--0-1-0----1-0-0--0-1-0-0--0—1~----------------------------|

Outro
Right near the end of the final chorus, play this to end the song:
e|---------------------------------------------------------------------------|
B|---------------------------------------------------------------------------|
G|---------------------------------------------------------------------------|
D|---------------------------------------------------------------------------|
A|--1-1-1-1---1-1-1-1--------------------------------------------------------|
D|--1-1-1-1---1-1-1-1--------------------------------------------------------|
PM  . . . .   . . . .


===============================================================================
| h  hammer-on
| p  pull-off
| ~  vibrato
| x  Mute note
===============================================================================
            
Hard to play? Try these video lessons and learn fast. | Correct




comments powered by Disqus
↑ Back to top | Tablatures and chords are parodies/interpretations of the original songs. You may use it for private study, scholarship, research or language learning purposes only