» » »

Adema, Shattered Tabs (ver.1)

Artists:  A B C D E F G H I J K L M N O P Q R S T U V W X Y Z # 

Shattered Tabs (ver.1)

Adema Tabs
 Rating:
3.7/5 (6 votes)
Shattered lessons Tabs too difficult? Try these video lessons and learn fast
1
                -------------------------------------------------------------------------------
                           Adema - Shattered
-------------------------------------------------------------------------------

Tuning: E-A-D-G-B-E

Riff 1 / Chorus:
(Distortion)

e|--8--8-8--8-----8--8---7--7---7----------------------------------------------|
B|-10-10-10-10---10-10--9--9---9-----------------------------------------------|
G|-10-10-10-10---10-10---------------------------------------------------------|
D|-----------------------------------------------------------------------------|
A|-----------------------------------------------------------------------------|
E|-----------------------------------------------------------------------------|

Verse Guitar1(Clean,Delay) :

e|-3-3---3-3----3-3----3-3-------------|-------------------------------------|
B|-----3-----2------3------2-----------|----2--------------------------------|
G|--------------------------------------|---4--------------------------------|
D|-------------------------------------|-------------------------------------|
A|--------------------------------------|------------------------------------|
E|--------------------------------------|------------------------------------|

Verse Guitar2:
 (Listen the timing!)

e|--3---4--------------------------------------------------------------------|
B|--------3---3--------------------------------------------------------------|
G|------------5--------------------------------------------------------------|
D|---------------------------------------------------------------------------|
A|---------------------------------------------------------------------------|
E|---------------------------------------------------------------------------|

"What do you want in life
Who you have planned for the future I wonder does anything matter..."
(Distortion)

e -----------------------------------------------------------------------------|
B|-----13--13------13--13-------13--13---15--11--11----------------------------|
G|--12----------12-----------13------------------------------------------------|
Dl-----------------------------------------------------------------------------|
A|-----------------------------------------------------------------------------|
E|-----------------------------------------------------------------------------|

"you'll have nothing you'll have nothing you'll have.... nothing"
(WahWah)

e|---------------------------------------------------------------------------|
B|--13----------------------------/15----------------------------------------|
G|---------------------------------------------------------------------------|
D|---------------------------------------------------------------------------|
A|---------------------------------------------------------------------------|
E|---------------------------------------------------------------------------|

| /  slide up
| \  slide down
| h  hammer-on
| p  pull-off
| ~  vibrato
| +  harmonic
| x  Mute note
===============================================================================
            
Submit corrections

comments powered by Disqus
↑ Back to top | Adema Tabs for Shattered. Lyrics for acoustic guitar and electric guitar. 1 Tablatures and chords are parodies/interpretations of the original songs. You may use it for private study, scholarship, research or language learning purposes only