>
 >
Planets

Planets Guitar Tabs

Adema - Planets chords, tabs, tablatures, lyrics

Guitar lessons | Add/correct | Request | Top 50 tabs Artists:  A B C D E F G H I J K L M N O P Q R S T U V W X Y Z 0-9

Planets Guitar Tabs – Adema

CD, Sheet music, Poster

Do you like Planets? Share with your friends now
ChordsTabsTabs v2Ukulele
Adema - Planets

   intro/verse - clean - 6x
eb --------9--9-7--7-5---5------7--7-5--5-4---4-|
Bb ---7--7-----------------5--5-----------------|
Gb ---------------------------------------------|
Db ---------------------------------------------|
Ab ---------------------------------------------|
Db ---------------------------------------------|

   chorus 1 - clean - 2x
eb ----------------------------------------------------------|
Bb ----------------------------------------------------------|
Gb ----------------------------------------------------------|
Db ----------------------------------------------------------|
Ab -------------4-4-4-4-4-4-4-4--------------5-5-5-5-5-5-5-5-|
Db -4-4-4-4-4-4------------------2-2-2-2-2-2-----------------|

eb -----------------------------------------------------------|
Bb -----------------------------------------------------------|
Gb -----------------------------------------------------------|
Db -----------------------------------------------------------|
Ab -------------4-4-4-4-4-4-4-4----------4--2-----------2--0--|
Db -4-4-4-4-4-4------------------0-0-0-0--0--0--2-2-2-2--2--2-|
 
   verse 4x

   chorus 2 
             - gtr 1 - clean - 2x, then distorted 2x
eb ----------------------------------------------------------|
Bb ----------------------------------------------------------|
Gb ----------------------------------------------------------|
Db ----------------------------------------------------------|
Ab -------------4-4-4-4-4-4-4-4--------------5-5-5-5-5-5-5-5-|
Db -4-4-4-4-4-4------------------2-2-2-2-2-2-----------------|

eb -----------------------------------------------------------|
Bb -----------------------------------------------------------|
Gb -----------------------------------------------------------|
Db -----------------------------------------------------------|
Ab -------------4-4-4-4-4-4-4-4----------4--2-----------2--0--|
Db -4-4-4-4-4-4------------------0-0-0-0--0--0--2-2-2-2--2--2-| 
              - gtr 2 - heavy distortion
eb ---------------------------------|
Bb ---------------------------------|
Gb ---------------------------------|
Db ---------------------------------|
Ab -000000000000000-222222222222222-|
Db -000000000000000-222222222222222-|
pm  ............... ...............

eb --------------------------------------------------------------------|
Bb --------------------------------------------------------------------|
Gb --------------------------------------------------------------------|
Db -4-4-4-4-4-4-4-4--2-2-2-2-2-2-2-2--0-0-0-0-0-0-0-0--0-0-0-0-2-2-2-2-|
Ab -4-4-4-4-4-4-4-4--2-2-2-2-2-2-2-2--0-0-0-0-0-0-0-0--0-0-0-0-2-2-2-2-|
Db -4-4-4-4-4-4-4-4--2-2-2-2-2-2-2-2--0-0-0-0-0-0-0-0--0-0-0-0-2-2-2-2-|
                                          
   gtr2 last notes of the chorus 2
eb ---------------------------------|
Bb ---------------------------------|
Gb -7-7-7-7-7-7-7-7-7/6-6-6-9-9-9-9-|
Db ---------------------------------|
Ab ---------------------------------|
Db ---------------------------------|
                                                          
                                                                
bridge - gtr1 - 2x 
eb ------------------------------------------------------------------------|
Bb ------------------------------------------------------------------------|
Gb --------------------------------------4-4--4-4--4-4--4-4--7----6---9----|
Db -4-4--4-4--4-4--4-7-7--7-7--7-7--7-7--4-4--4-4--4-4--4-4--x----x---x----|
Ab -4-4--4-4--4-4--4-7-7--7-7--7-7--7-7--2-2--2-2--2-2--2-2--5----4---7----|
Db -4-4--4-4--4-4--4-7-7--7-7--7-7--7-7------------------------------------|
    gtr2 
eb ----------------------------|-------------------------------------------|
Bb ----------------------------|-7-7-7-7-----------------------------------|
Gb -9---6---7--7/6-6-6-9-9-9-9-|---------6-6-6-6--7-7-6-6--7-7-7-7-9-9-9-9-|
Db ----------------------------|-------------------------------------------|
Ab ----------------------------|-------------------------------------------|
Db ----------------------------|-------------------------------------------|
   
  gtr1 does 2x chorus

  gtr2 does 1x chorus then                      
eb --------------------------------------5555555555555555-7---------------|
Bb ----7777777777777777-9999999999999999--------------------10-9-10---9/7-|
Gb -----------------------------------------------------------------------|
Db -(4)-------------------------------------------------------------------|
Ab -----------------------------------------------------------------------|
Db -----------------------------------------------------------------------|
   
  gtr1 does 4x verse - clean 
  
  outro gtr2 2x - clean and very quietly
eb ------------------------------------|             |---|
Bb ----------5-------------------------|  gtr 1 ends |-7-|
Gb ---6---------7-6-7-----6------4-----|             |---|
Db -4----7--------------7---7--6---6---|  gtr 2 ends |-4-|
Ab ------------------------------------|             |---|
Db ------------------------------------|             |---|

Please rate this tab!!! thanks





Comments


Popular Adema tabs & chords
Betrayed Me 1 Bass Tabs
Stand Up Bass Tabs
Planets Chords
Arrows Tabs
Barricades In Time Tabs
Immortal 3 Tabs
Needles Tabs
So Fortunate Tabs
Speculum 4 Tabs
Unstable Chorus Tabs


Song lyrics



↑ Back to top | Tablatures and chords are parodies/interpretations of the original songs. You may use it for private study, scholarship, research or language learning purposes only
© 2014 AZChords.com Contact us | Privacy policy | DMCA | Add/correct tabs | Request tabs | Top 50 tabs