» » »

Adema, Immortal Bass tabs (ver.1)

Artists:  A B C D E F G H I J K L M N O P Q R S T U V W X Y Z # 

Immortal Bass tabs (ver.1)

Adema Tabs
Rating:
0/5 (0 votes)
Immortal  lessons Tabs too difficult? Try these video lessons and learn fast
                (2)
Band - Adema
Song-Immortal

Intro
G|-----------------------------------------------
D|-----------------------------------------------
A|-6-66-222-333-44-555--6-66-222-3-5-3-----------x4
D|-----------------------------------------------

Verse x3
G|----------------------------------------------------------------------------------
D|----------------------------------------------------------------------------------
A|-----66666666666--4444-22222222-1111-0000-----------------------2222-0000----------
E|-----------------------------------------22222222-3333-22222222-------------------

G|----------------------------------------------------------------------------------
D|----------------------------------------------------------------------------------
A|-----66666666666--4444-22222222-1111-0000-----------------------6--4--2------------
E|-----------------------------------------0000000000000000-3333--------------------

G|----------------------------------------------------------------------------------
D|----------------------------------------------------------------------------------
A|-----66666666666--4444-22222222-1111-0000-----------------------6-66-4-2----------
E|------------------------------------------000000000000000-2222--------------------

Chorus
G|----------------------------------------------------
D|----------------------------------------------------
A|-6-6-66-6-66----------------------------------------X4
D|--------------3-3-33-3-33-4-4-44-4-44-1-1-11-1-11---

Intro
G|-----------------------------------------------
D|-----------------------------------------------
A|-6-66-222-333-44-555--6-66-222-3-5-3-----------x2
D|-----------------------------------------------


Versex3
G|----------------------------------------------------------------------------------
D|----------------------------------------------------------------------------------
A|-----66666666666--4444-22222222-1111-0000-----------------------2222-0000----------
E|-----------------------------------------22222222-3333-22222222-------------------

G|----------------------------------------------------------------------------------
D|----------------------------------------------------------------------------------
A|-----66666666666--4444-22222222-1111-0000-----------------------6--4--2------------
E|-----------------------------------------0000000000000000-3333--------------------

G|----------------------------------------------------------------------------------
D|----------------------------------------------------------------------------------
A|-----66666666666--4444-22222222-1111-0000-----------------------6-66-4-2----------
E|------------------------------------------000000000000000-2222--------------------

chorus x4
G|----------------------------------------------------
D|----------------------------------------------------
A|-6-6-66-6-66----------------------------------------
D|--------------3-3-33-3-33-4-4-44-4-44-1-1-11-1-11---


IntroX2

G|----------------------------------------------------------------------------------
D|----------------------------------------------------------------------------------
A|-----66666666666--4444-22222222-00000000-----------------------2222-0000----------
E|-----------------------------------------22222222-3333-22222222-------------------


G|-------------------
D--------------------
A|-66666666666--4444-
E|-------------------


BridgexX3
G|-----------
D------------
A|--6-66-4-3-
E|-----------

Chorus x4
G|----------------------------------------------------
D|----------------------------------------------------
A|-6-6-66-6-66----------------------------------------
D|--------------3-3-33-3-33-4-4-44-4-44-1-1-11-1-11---


Bridgex12
G|-----------
D------------
A|--6-66-4-3-
E|-----------


thats it or atleast how i play it and im pretty sure its 100% correct!
            

comments powered by Disqus
↑ Back to top | Adema Bass for Immortal. Lyrics for acoustic guitar and electric guitar. Tablatures and chords are parodies/interpretations of the original songs. You may use it for private study, scholarship, research or language learning purposes only