» » »

Adema, Giving In Tabs (ver.9)

Artists:  A B C D E F G H I J K L M N O P Q R S T U V W X Y Z # 

Giving In Tabs (ver.9)

Adema Tabs
 Rating:
4/5 (4 votes)
Giving In lessons Tabs too difficult? Try these video lessons and learn fast
1
                Giving in by Adema

Drop D Tuning

Intro

Guitar 1
E----------------------------
B----------------------------
G----------------------------
D--14-14--13-13--14-14--13-13
A----------------------------
D----------------------------

Guitar 2
E-------------------------------
B-------------------------------
G--13-13-13-13-13-13-13-13-13-13
D-------------------------------
A-------------------------------
D-------------------------------

Pre Verse 

Guitar 1
E------------------------------
B------------------------------
G------------------------------
D--8-9-8--6-8-6----------------
A----------------6-7-6---------
D-----------------------6-8-4-6

Guitar 2
E------------------------------
B------------------------------
G------------------------------
D--6-6--2-2--1-1--1-1~~4-------
A--6-6--2-2--1-1--1-1~~4-------
D--6-6--2-2--1-1--1-1~~4-------

Verse 1

Guitar 1
E-------------------------------
B-------------------------------
G--13-13-13-13-13-13-13-13-13-13
D-------------------------------
A-------------------------------
D-------------------------------

Guitar 2 –Palm Muted-
E------------------------------
B------------------------------
G------------------------------
D--6-6--2-2--7-7--1-1----------
A--6-6--2-2--7-7--1-1----------
D--6-6--2-2--7-7--1-1----------
Chorus

Guitar 1
E------------------------------
B--9-7---------7---------------
G-------8b--6------------------
D------------------------------
A------------------------------
D------------------------------

Guitar 2
E----------------------------------
B----------------------------------
G----------------------------------
D--6-6-6--2-2-2-2--1-1-1-1--4-4-4-4
A--6-6-6--2-2-2-2--1-1-1-1--4-4-4-4
D--6-6-6--2-2-2-2--1-1-1-1--4-4-4-4

Pre Verse

Guitar 1
E------------------------------
B------------------------------
G------------------------------
D--8-9-8--6-8-6----------------
A----------------6-7-6---------
D-----------------------6-8-4-6

Guitar 2
E------------------------------
B------------------------------
G------------------------------
D--6-6--2-2--1-1--1-1~~4-------
A--6-6--2-2--1-1--1-1~~4-------
D--6-6--2-2--1-1--1-1~~4-------

Verse 2

Guitar 1
E-------------------------------
B-------------------------------
G--13-13-13-13-13-13-13-13-13-13
D-------------------------------
A-------------------------------
D-------------------------------

Guitar 2 –Palm Muted-
E------------------------------
B------------------------------
G------------------------------
D--6-6--2-2--7-7--1-1----------
A--6-6--2-2--7-7--1-1----------
D--6-6--2-2--7-7--1-1----------




Chorus

Guitar 1
E------------------------------
B--9-7---------7---------------
G-------8b--6------------------
D------------------------------
A------------------------------
D------------------------------

Guitar 2
E----------------------------------
B----------------------------------
G----------------------------------
D--6-6-6--2-2-2-2--1-1-1-1--4-4-4-4
A--6-6-6--2-2-2-2--1-1-1-1--4-4-4-4
D--6-6-6--2-2-2-2--1-1-1-1--4-4-4-4

Solo

Guitar 1 played 2 times
E-----------------------------4------------ 
B--------4--------------------------------- 
G--4h6p4---6p4-4h6p4----4h6p4---6p4-3h4p3--
D--------------------6--------------------6
A------------------------------------------
D------------------------------------------

Guitar 2
E--------------------------------------------------------------
B--------------------------------------------------------------
G--------------------------------------------------------------
D--6-6-6-6-6-6--2-2-2-2-2-2-2--11-11-11-11-11-11-11-11-11-11--6
A--6-6-6-6-6-6--2-2-2-2-2-2-2--11-11-11-11-11-11-11-11-11-11--6
D--6-6-6-6-6-6--2-2-2-2-2-2-2--11-11-11-11-11-11-11-11-11-11--6

Interlude part 1

Guitar 1 and Guitar 2
E----------------------------------
B----------------------------------
G----------------------------------
D--6--2--1--1----4----6--2--1--1--4
A--6--2--1--1----4----6--2--1--1--4
D--6--2--1--1----4----6--2--1--1--4

Interlude Part 2

Guitar 1
E--6-7-6--4-5-4----------------
B----------------4-5-4---------
G-----------------------3-4-3--
D------------------------------
A------------------------------
D------------------------------


Guitar 2
E----------------------------------
B----------------------------------
G----------------------------------
D--6--2--1--1----4----6--2--1--1--4
A--6--2--1--1----4----6--2--1--1--4
D--6--2--1--1----4----6--2--1--1--4

Chorus

Guitar 1
E------------------------------
B--9-7---------7---------------
G-------8b--6------------------
D------------------------------
A------------------------------
D------------------------------

Then
E--16-16-16--14-------------
B----------------16b--14----
G---------------------------
D---------------------------
A---------------------------
D---------------------------

End on
E--16
B----
G----
D----
A----
E----

Guitar 2
E----------------------------------
B----------------------------------
G----------------------------------
D--6-6-6--2-2-2-2--1-1-1-1--4-4-4-4
A--6-6-6--2-2-2-2--1-1-1-1--4-4-4-4
D--6-6-6--2-2-2-2--1-1-1-1--4-4-4-4

E---
B---
G---
D--6
A--6
E--6
            
Submit corrections

comments powered by Disqus
↑ Back to top | Adema Tabs for Giving In. Lyrics for acoustic guitar and electric guitar. 1 Tablatures and chords are parodies/interpretations of the original songs. You may use it for private study, scholarship, research or language learning purposes only