>
 >
Freaking Out 2

Freaking Out 2 Guitar Tabs

Adema - Freaking Out 2 chords, tabs, tablatures, lyrics

Guitar lessons | Add/correct | Request | Top 50 tabs Artists:  A B C D E F G H I J K L M N O P Q R S T U V W X Y Z 0-9

Freaking Out 2 Guitar Tabs – Adema

CD, Sheet music, Poster

Do you like Freaking Out 2? Share with your friends now
Bass TabsTabsTabs v2Tabs v3
Tuning: C G C F A D  (Note: Very important tuning your guitar this way, cause when I tabbed it I had this kind of tuning. Play it with the song.)


Guitar 1
Intro/Verse
D|---------------------------------------------------------------------------------|
A|---------------------------------------------------------------------------------|
F|---------------------------------------------------------------------------------|
C|---------------------------------------------------------------------------------|
G|---------------------------------------------------------------------------------|
C|--5-5-5-5-5-5-5--8-8-8-8-8--10-10-10-10-10--5-5-5-5-5-5-5--8-8-8-8-8--3-3-3-3-3--|

Guitar 2
Some where in the intro and during the verse at random parts.
D|---------------21*------|
A|------------------------|
F|----19*-17*-------------|
C|------------------------|
G|------------------------|
C|------------------------|

Guitar 2
Also at random parts during the verse.
D|-----21*/-------|
A|----------------|
F|----------------|
C|----------------|
G|----------------|
C|----------------|

Both Guitar’s
Chorus
D|------------------------|
A|------------------------|
F|------------------------|
C|---5-----3----0----5----|
G|---5-----3----0----5----|
C|---5-----3----0----5----|

Guitar 1
Chorus
D|--------------------------------------------------------------|
A|--------------------------------------------------------------|
F|--------------------------------------------------------------|
C|--------------------------------------------------------------|
G|-5-5-5-5-5-5--8-8-8-8-8-10-10-10-10-10--8-8-8-8-8-3-3-3-3-3---|
C|-5-5-5-5-5-5--8-8-8-8-8-10-10-10-10-10--8-8-8-8-8-3-3-3-3-3---|

Guitar 2
Chorus  (Dont know the strumming pattern)
D|-------------------------------------|
A|-----15------16------15-------16-----|
F|-15------15------15-------15---------|
C|-------------------------------------|
G|-------------------------------------|
C|-------------------------------------|

Both Guitars
Interlude thing
D|----------------------|
A|----------------------|
F|----------------------|
C|-5-5-5-----5-5-5--3---|
G|-5-5-5-----5-5-5--3---|
C|-5-5-5-----5-5-5--3---|
Thanks for looking and send corrections if needed





Comments


Popular Adema tabs & chords
Someone Else's Lies Bass Tabs
The Way You Like It Bass Tabs
Betrayed Me Tabs
Do What You Want To Do Tabs
Do You Hear Me? Tabs
Pain Inside 2 Tabs
Speculum Tabs
Speculum 4 Tabs
The Way You Like It 4 Tabs
Planets Ukulele


Song lyrics



↑ Back to top | Tablatures and chords are parodies/interpretations of the original songs. You may use it for private study, scholarship, research or language learning purposes only
© 2014 AZChords.com Contact us | Privacy policy | DMCA | Add/correct tabs | Request tabs | Top 50 tabs