» » »

Adema, Freaking Out Tabs (ver.2)

Artists:  A B C D E F G H I J K L M N O P Q R S T U V W X Y Z # 

Freaking Out Tabs (ver.2)

Adema Tabs
 Rating:
4/5 (4 votes)
Freaking Out lessons Tabs too difficult? Try these video lessons and learn fast
                Tuning: C#-G#-C#-F#-A#-D# (Tune to Sharps) 

(Rythm Guitar)
Intro/Verse
D#|---------------------------------------------------------------------------------|
A#|---------------------------------------------------------------------------------|
F#|---------------------------------------------------------------------------------|
C#|---------------------------------------------------------------------------------|
G#|---------------------------------------------------------------------------------|
C#|--4-4-4-4-4-4-4--7-7-7-7-7--9-9-9-9-9--4-4-4-4-4-4-4--7-7-7-7-7--2-2-2-2-2-------|

(Lead Guitar)
Play During some of the intro and on some of the Verse
D#|---------------20*------|
A#|------------------------|
F#|----18*-16*-------------|
C#|------------------------|
G#|------------------------|
C#|------------------------|

(Lead Guitar)
Also at random parts during the verse.
D#|-----20*/-------|
A#|----------------|
F#|----------------|
C#|----------------|
G#|----------------|
C#|----------------|

Chorus
D#|------------------------|
A#|------------------------|
F#|------------------------|
C#|---4-----2----0----4----|
G#|---4-----2----0----4----|
C#|---4-----2----0----4----|

(Rythm Guitar)
2nd Part of Chorus
D#|--------------------------------------------------------------|
A#|--------------------------------------------------------------|
F#|--------------------------------------------------------------|
C#|--------------------------------------------------------------|
G#|-4-4-4-4-4-4--7-7-7-7-7-9-9-9-9-9--7-7-7-7-7-2-2-2-2-2--------|
C#|-4-4-4-4-4-4--7-7-7-7-7-9-9-9-9-9--7-7-7-7-7-2-2-2-2-2--------|

(Lead Guitar)
Chorus  
D#|-------------------------------------|
A#|-----14------15------14-------15-----|
F#|-14------14------14-------14---------|
C#|-------------------------------------|
G#|-------------------------------------|
C#|-------------------------------------|

Both Guitars
Outro
D#|----------------------|
A#|----------------------|
F#|----------------------|
C#|-4-4-4-----4-4-4--2---|
G#|-4-4-4-----4-4-4--2---|
C#|-4-4-4-----4-4-4--2---|
            
Submit corrections

comments powered by Disqus
↑ Back to top | Adema Tabs for Freaking Out. Lyrics for acoustic guitar and electric guitar. Tablatures and chords are parodies/interpretations of the original songs. You may use it for private study, scholarship, research or language learning purposes only