» » »

Adema, Freaking Out Tabs (ver.1)

Artists:  A B C D E F G H I J K L M N O P Q R S T U V W X Y Z # 

Freaking Out Tabs (ver.1)

Adema Tabs
Rating:
5/5 (3 votes)
Freaking Out lessons Tabs too difficult? Try these video lessons and learn fast
                Tuning - CGCFAD

Intro/Verse (guitar1)

D|-------------------------------|
A|-------------------------------|
F|-------------------------------|
C|-------------------------------|  (rhythm guitar with alot of distortion)
G|-------------------------------|   (Also, Palm mute this section)
C|-0-22-33-555-77-0-22-333-00000-|

Random parts during Verse (guitar2)

D|-----------21*--|
A|----------------|
F|---19*-17*------|  (Lead guitar effect with 
C|----------------|  chorus and alot of delay)
G|----------------|
C|----------------|

Also at random parts during Verse (guitar2)

D|----21*/--------|
A|----------------|
F|----------------|  (Lead guitar effect with 
C|----------------|  chorus and alot of delay)
G|----------------|
C|----------------|

Pre-Chorus (both guitars)

D|----------------|
A|----------------|
F|----------------|
C|--5~-3~-0~------|
G|--5~-3~-0~------|
C|--5~-3~-0~------|

Main Chorus (guitar1) (rhythm guitar with alot of distortion)

D|-------------------------------------|
A|-------------------------------------|
F|----------33333333----------3333-----|
C|-55555555-33333333-33333333-3333-111-|
G|-55555555-11111111-33333333-1111-111-|
C|-55555555----------33333333------111-|

Main Chorus (guitar2) (Lead guitar effect with chorus and alot of delay)
    Do this bit 3 times....         ...then do this on the 4th time
D|---------------------------------|--------------------------------|  
A|----15x1----16x3---15x1---16x1---|----15x1---16x1-15x2--16x1------|  
F|-15x1---15x1---15x1----15x1------|-15x1---15x1-------15x2---------|    
C|---------------------------------|--------------------------------|
G|---------------------------------|--------------------------------|  
C|---------------------------------|--------------------------------|  

When he says 'Im trippin out', (guitar2) does this.

D|-----------21~-20~---------21~-22~----------|
A|-------------------17~-15~------------------|
F|---20~-18~----------------------------------|  (Lead guitar effect with 
C|--------------------------------------------|  chorus and alot of delay)
G|--------------------------------------------|
C|--------------------------------------------|


Bridge (both guitars)

D|-------------------------------------------------------|
A|-------------------------------------------------------|
F|-------------------------------------------------------|
C|-55-55-555---55-55-55-33-33-55-55-555---55-55-55-8-33--|
G|-55-55-555---55-55-55-33-33-55-55-555---55-55-55-8-33--|
C|-55-55-555---55-55-55-33-33-55-55-555---55-55-55-8-33--|

Outro (guitar1) 

D|-------------------------------------|
A|-------------------------------------| 
F|----------33333333----------3333-----|
C|-55555555-33333333-33333333-3333-111-| Do this part 5 times, then on
G|-55555555-11111111-33333333-1111-111-| the 6th time, do the below once.
C|-55555555----------33333333------111-| 

D|--------------------------------------------------|
A|--------------------------------------------------|
F|----------33333333--------------------------------|
C|-55555555-33333333-33333333-8~----3~----1~--------|
G|-55555555-11111111-33333333-8~----3~----1~--------|
C|-55555555----------33333333-8~----3~----1~--------|

* - Those are Pinch Harmonics. Also known as Artificial Harmonics.


This is very, very near 100% correct. The strumming patterns are almost correct
too. It sounds great.
In my opinion, best adema song there is. ENJOY!

Song Layout:

Intro/verse
pre chorus
chorus
Intro/verse
pre chorus
chorus
bridge
Intro/verse
pre chorus
chorus
outro...............listen to the song for the timings.  :)
            

comments powered by Disqus
↑ Back to top | Adema Tabs for Freaking Out. Lyrics for acoustic guitar and electric guitar. Tablatures and chords are parodies/interpretations of the original songs. You may use it for private study, scholarship, research or language learning purposes only