» » »

Drowning Tabs (ver.1)

Artists:  A B C D E F G H I J K L M N O P Q R S T U V W X Y Z # 

Drowning Tabs (ver.1)

Adema
Rating:
4/5 (1 vote)

Hard to play? Try these video lessons and learn fast.
                Adema - Drowning


Tuning: Standard (E A D G B E)

INTRO
E|---------------------------------||
B|---------------------------------||
G|---------------------------------||
D|---------------------------------||
A|-1-1-1-1-2-2-2-1-1-1-1-1-2-2-3-3-||
E|---------------------------------||
then..


E|--------------------||
B|--------------------||
G|-3----4----3----4-5-||
D|-3-x2-4-x2-3-x2-4-5-||
A|-1----2----1----2-3-||
E|--------------------||

listen for exact attack

VERSE

E|-------------------------------------------------------------||
B|-------------------------------------------------------------||
G|-x-x-3-x-3---3---------4----x-x-3-x-3---3---------6----4-----||
D|-x-x-3-x-3---3-x2-6----4-x5-x-x-3-x-3---3-x2-6----6-x3-4-x2--||
A|-x-x-1-x-1---1----6-x3-2----x-x-1-x-1---1----6-x3-4----2-----||
E|------------------4--------------------------4---------------||


CHORUS same as hard part of the intro

BREAK

E|------------------||
B|------------------||
G|-3----x-x-6-------||
D|-3-x5-x-x-6-x2----||
A|-1----x-x-4-------||
E|------------------||

E|------------------||
B|--------------6---||
G|-3---6-5--3-----6-||
D|------------------||
A|------------------||
E|------------------||


E|-------||
B|-------||
G|-3-----||
D|-3-x7--||
A|-1-----||
E|-------||
            
Hard to play? Try these video lessons and learn fast. | Correct




comments powered by Disqus
↑ Back to top | Tablatures and chords are parodies/interpretations of the original songs. You may use it for private study, scholarship, research or language learning purposes only