» » »

Adema, Do What You Want To Do Tabs (ver.1)

Artists:  A B C D E F G H I J K L M N O P Q R S T U V W X Y Z # 

Do What You Want To Do Tabs (ver.1)

Adema Tabs
Rating:
3/5 (2 votes)
Do What You Want To Do lessons Tabs too difficult? Try these video lessons and learn fast
                Adema - Do What You Want To Do


This song was a pain to tab out,,, I hope its accurate, enjoy.


INTRO
E|----------------------------------------------------||
B|----------------------------------------------------||
G|-5----7-8--7/8/7-7/8/7-7/8/7-5----7-8--7/8/7-7/10-8-||
D|-5-x6-7-8--7/8/7-7/8/7-7/8/7-5-x6-7-8--7/8/7-7/10-8-||   X2
A|-3----5-6--5/6/5-5/6/5-5/6/5-3----5-6--5/6/5-5/8--6-||
E|----------------------------------------------------||

VERSE

E|---------------------------------------------------------------------------||
B|---------------------------------------------------------------------------||
G|-5----7-8----10-8----10-7----8----5----7/8/7-5----13----10----13----12-----||
D|-5-x7-7-8-x7-10-8-x7-10-7-x2-8-x2-5-x2-7/8/7-5-x5-13-x2-10-x5-13-x2-10-x2--||
A|-3----5-6----8--6----8--5----6----3----5/6/5-3----11----8-----11----10-----||
E|---------------------------------------------------------------------------||

E|-----------------------------||
B|-----------------------------||
G|-8----10----8----7----7/8/7--||
D|-8-x8-10-x2-8-x2-7-x2-7/8/7--||
A|-6----8-----6----5----5/6/5--||
E|-----------------------------||

CHORUS    do what you wanna do,,,,
E|------------------||
B|------------------||
G|-5----5----8--7---||
D|-5-x4-5-x7-8--7---||
A|-3----3----6--5---||
E|------------------||

BREAK

E|---------------------------------||
B|---------------------------------||
G|------------------------0--------||
D|--------2-3-2--5-6-5-------------||
A|-3-4-3---------------3h4--4p3-3--||
E|---------------------------------||
            
Submit corrections

comments powered by Disqus
↑ Back to top | Adema Tabs for Do What You Want To Do. Lyrics for acoustic guitar and electric guitar. Tablatures and chords are parodies/interpretations of the original songs. You may use it for private study, scholarship, research or language learning purposes only