» » »

Co-Dependant Tabs (ver.1)

Artists:  A B C D E F G H I J K L M N O P Q R S T U V W X Y Z # 

Co-Dependant Tabs (ver.1)

Adema
Rating:
5/5 (8 votes)

Hard to play? Try these video lessons and learn fast.
                Band:Adema
Tuning:Drop D 


Intro Heavy Distortion
e|------------------------------------------------------------------------| 
B|------------------------------------------------------------------------|
G|------------------------------------------------------------------------|
D|-12-12-0-12-0-0-12-0-12-12-0-12-13-13-0-12-0-0-10-0-10-10-10-10---------|
A|-12-12-0-12-0-0-12-0-12-12-0-12-13-13-0-12-0-0-10-0-10-10-10-10---------|
D|-12-12-0-12-0-0-12-0-12-12-0-12-13-13-0-12-0-0-10-0-10-10-10-10---------|

Verse
Most people don't care, some people just fear
e|----------------------------------------------------------------| 
B|----------------------------------------------------------------|
G|----------------------------------------------------------------|
D|----------------------------------------------------------------|
A|----------------------------------------------------------------|
D|-12-12-0-12-12-12-0-12-0-13-12-0-12-12-12-0-12-0-12-12-0--------|

There's so much pressure, that our lives will feed us
e|--------------------------------------------| 
B|--------------------------------------------|
G|------------------------------------12--3---|
D|------------------------------------10--1---|
A|------------------------------------10--1---|
D|-12-12-0-12-12-12-0-12-0-13-12-0-12-10--1---|

Chorus
You hurt yourself and blame me when you fall (codependent)
e|------------------------------------------------------------------------| 
B|------------------------------------------------------------------------|
G|------------------------------------------------------------------------|
D|-0-0-0-0-0-0-0-0--3-3-3-3-3-3-3--8-8-8-8-8-8-8-8--10--5-5-5-5-5-5-5-5---|
A|-0-0-0-0-0-0-0-0--3-3-3-3-3-3-3--8-8-8-8-8-8-8-8--10--5-5-5-5-5-5-5-5---|
D|-0-0-0-0-0-0-0-0--3-3-3-3-3-3-3--8-8-8-8-8-8-8-8--10--5-5-5-5-5-5-5-5---|
            
Hard to play? Try these video lessons and learn fast. | Correct




comments powered by Disqus
↑ Back to top | Tablatures and chords are parodies/interpretations of the original songs. You may use it for private study, scholarship, research or language learning purposes only