>
 >
Blow It Away 1

Blow It Away 1 Guitar Tabs

Adema - Blow It Away 1 chords, tabs, tablatures, lyrics

Guitar lessons | Add/correct | Request | Top 50 tabs Artists:  A B C D E F G H I J K L M N O P Q R S T U V W X Y Z 0-9

Blow It Away 1 Guitar Tabs – Adema

CD, Sheet music, Poster

Do you like Blow It Away 1? Share with your friends now
Bass TabsTabsTabs v2Tabs v3
-------------------------------------------------------------------------------
                             Blow It Away - Adema
-------------------------------------------------------------------------------

Tuning: down half a step drop D (Db, Ab, Db, Gb, Bb, Eb)

Well im pretty sure about this tab, im sure i've got the intro, verses correct,
bridge might be wrong in a couple of places but apart from that i reckon this is
good:D so enjoy.

Intro
Rhy. Fig. 1 (x2)(Gtr.1 & 2)
Eb|---------------------------------------------------------------------------|
Bb|---------------------------------------------------------------------------|
Gb|---------------------------------------------------------------------------|
Db|5/777777777-10-10-10-10-55-44444444-12-12-12-8-8-8--7777777777-10-10-10-10-|
Ab|5/777777777-10-10-10-10-55-44444444-12-12-12-8-8-8--7777777777-10-10-10-10-|
Db|5/777777777-10-10-10-10-55-44444444-12-12-12-8-8-8--7777777777-10-10-10-10-|

Eb|---------------------------------------------------------------------------|
Bb|---------------------------------------------------------------------------|
Gb|---------------------------------------------------------------------------|
Db|55-44444444-0-0-0-8-8-8----------------------------------------------------|
Ab|55-44444444-0-0-0-8-8-8----------------------------------------------------|
Db|55-44444444-0-0-0-8-8-8----------------------------------------------------|

Verse
Riff A (x3)(Gtr.1)                    |---------Fill A---------|
Eb|---------------------------------------------------------------------------|
Bb|---------------------------------------------------------------------------|
Gb|---------------------------------------------------------------------------|
Db|14------------13---10---------------14-------------------------------------|
Ab|---------12----------------------------------12---14h15p14-----------------|
Db|-----------------------------------------------------------17--------------|
   |--------                           |--------

Rhy. Fill. 1 (Gtr.2) played at the end of the Verse
Eb|---------------------------------------------------------------------------|
Bb|---------------------------------------------------------------------------|
Gb|---------------------------------------------------------------------------|
Db|12-12-12-8-8-8-------------------------------------------------------------|
Ab|12-12-12-8-8-8-------------------------------------------------------------|
Db|12-12-12-8-8-8-------------------------------------------------------------|

Chorus - Rhy. Fig. 1 (Gtr.1 & 2)
Verse - Riff A (Gtr.1)

Rhy. Fig. 2 (Gtr.2)
Eb|---------------------------------------------------------------------------|
Bb|---------------------------------------------------------------------------|
Gb|---------------------------------------------------------------------------|
Db|---------------------------------------------------------------------------|
Ab|5-77777777-10-10-10-55-44444444-12-12-12-8-8-8-77777777-10-10-10-55--------|
Db|5-77777777-10-10-10-55-44444444-12-12-12-8-8-8-77777777-10-10-10-55--------|
   PM-----------------------------------------------------------------

Eb|---------------------------------------------------------------------------|
Bb|---------------------------------------------------------------------------|
Gb|---------------------------------------------------------------------------|
Db|---------12-12-12-8-8-8----------------------------------------------------|
Ab|44444444-12-12-12-8-8-8----------------------------------------------------|
Db|44444444-12-12-12-8-8-8----------------------------------------------------|
   -------|

Chorus - Rhy. Fig. 1 (x2)(Gtr.1 & 2)

Bridge
Rhy. Fig. 3 (x2)(Gtr.1)
Eb|---------------------------------------------------------------------------|
Bb|---------------------------------------------------------------------------|
Gb|---------------------------------------------------------------------------|
Db|7777-6666-2222-3333-0000-11-11-1111----------------------------------------|
Ab|7777-6666-2222-3333-0000-11-11-1111----------------------------------------|
Db|7777-6666-2222-3333-0000-11-11-1111----------------------------------------|

Eb|---------------------------------------------------------------------------|
Bb|---------------------------------------------------------------------------|
Gb|-----------------2-repeat this---------------------------------------------|
Db|7----------------x-as many times------------2------------------------------|
Ab|7----------------0-necessary------------0--------3-------------------------|
Db|7--------------------------------------------------------------------------|
   |-------------

Chorus - Rhy. Fig. 1 (x4)(Gtr.1 & 2)

Eb|---------------------------------------------------------------------------|
Bb|---------------------------------------------------------------------------|
Gb|---------------------------------------------------------------------------|
Db|3--2--7---------2----------------------------------------------------------|
Ab|3--2--7-----0-------3------------------------------------------------------|
Db|3--2--7--------------------------------------------------------------------|

| /  slide up
| \  slide down
| h  hammer-on
| p  pull-off
| x  Mute note
| |-- hold the note
| PM--| Palm Muted
===============================================================================





Comments


Popular Adema tabs & chords
Blow It Away Bass Tabs
Do What You Want To Do Bass Tabs
Needles Bass Tabs
The Way You Like It Bass Tabs
Nutshell Chords
Adema 1 Tabs
Brand New Thing Tabs
Giving In 2 Tabs
Speculum (Solo Ver 2) Tabs
Unstable Tabs


Song lyrics



↑ Back to top | Tablatures and chords are parodies/interpretations of the original songs. You may use it for private study, scholarship, research or language learning purposes only
© 2014 AZChords.com Contact us | Privacy policy | DMCA | Add/correct tabs | Request tabs | Top 50 tabs