» » »

Adelitas Way, Invincible Tabs (ver.1)

Artists:  A B C D E F G H I J K L M N O P Q R S T U V W X Y Z # 

Invincible Tabs (ver.1)

Adelitas Way Tabs
Rating:
5/5 (1 vote)
Hard to play? Try these video lessons and learn fast.
                Invincible - Adelitwas Way
Tuning - C# G# C# F# A# D# / Db Ab Db Gb Bb Eb

I love this song and my band wanted to do a cover of it but there were no tabs on this
site or any other site so I ended up spending a couple hours doing it by ear and watching
different videos of the band playing. It's not 100% the way they play it, but it's close 
enough so you can play along with the record. This is exactly how my band plays it. I
included a few extra little runs during the chorus and intro might be slightly different.

This song is rather easy. I'd say the solo is intermediate at best. It's really just one
scale played in two locations.

Legend:
b^ = Bend Up
/ = Slide Down
\ = Slide Up
* = Pinch Harmonic
PM = Palm Mute
h = Hammer On
p = Pull Off
() = Optional Notes

INTRO

 Guitar 1
|-------------------|
|--10-8-8h10p8-7-6--|
|-------------------|
|-------------------|
|-------------------|
|-------------------|
|                   |
|Guitar2            |
|-------------------|
|-------------------|
|-------------------|
|--10---8---7---6---|
|--10---8---7---6---|
|--10---8---7---6---|
  ^^Strum 16x each^^

 Guitar 1 (Chords or Octaves)
|---------------------------------------|
|---------------------------------------|
|---7--7----5--5----4--4----3--3--3-----|
|--(7)(7)--(5)(5)--(4)(4)--(3)(3)(3)----| x4
|---5--5----3--3----2--2----1--1--1-----|
|---------------------------------------|
|                                       |
|Guitar2                                |
|---------------------------------------|
|---------------------------------------|
|--7-7----------------------------------|
|--7-7--3-3--5-5/6--5--3----------------| x4
|--5-5--3-3--5-5/6--5--3----------------|
|-------3-3--5-5/6--5--3----------------|
|                                       |
|Guitar 3 (This is optional. My band plays this instead of the guitar 1 part)
|---------------------------------------|
|------6-6--8-8--9--8--6h8--------------|
|-7-7-----------------------------------|
|---------------------------------------| x4
|---------------------------------------|
|---------------------------------------|



VERSE

 Guitar 1 & 2
|----------------------------------|
|----------------------------------|
|----------------------------------|
|--00--0-0-0-0-0h5-3-6-------------|
|--00--0-0-0-0-0h5-3-6-------------|
|--00--0-0-0-0-0h5-3-6-------------| x4



PRE-CHORUS

 Guitar 1 & 2
|-------------------------------|
|-------------------------------|
|-------------------------------|
|--8---10----0---3---10---8-----|
|--8---10----0---3---10---8-----|
|--8---10----0---3---10---8-----|
             PM  PM
 ^^Strum 16x each^^



CHORUS

Guitar1                              This is a little run I Do
|-----------------------------------|------------------|
|--------6------------6-------------|6h8p6---6-------6-|
|--5-777---777-5-777---777----------|------7---7p5h7---| x2
|-----------------------------------|------------------|
|-----------------------------------|------------------|
|-----------------------------------|------------------|
|                                   |
|Guitar2                            |
|-----------------------------------|
|-----------------------------------|
|-----------------------------------|
|-10--8--7--6-----------------------| x2
|-10--8--7--6-----------------------|
|-10--8--7--6-----------------------|



POST CHORUS

Guitar 1 (Chords or Octaves)
|---------------------------------------|
|---------------------------------------|
|---7--7----5--5----4--4----3--3--3-----|
|--(7)(7)--(5)(5)--(4)(4)--(3)(3)(3)----| x2
|---5--5----3--3----2--2----1--1--1-----|
|---------------------------------------|
|                                       |
|Guitar2                                |
|---------------------------------------|
|---------------------------------------|
|--7-7----------------------------------|
|--7-7--3-3--5-5/6--5--3----------------| x2
|--5-5--3-3--5-5/6--5--3----------------|
|-------3-3--5-5/6--5--3----------------|
|                                       |
|Guitar 3 (This is optional. My band plays this instead of the guitar 1 part)
|---------------------------------------|
|------6-6--8-8--9--8--6h8--------------|
|-7-7-----------------------------------|
|---------------------------------------| x2
|---------------------------------------|
|---------------------------------------|



VERSE

 Guitar 1 & 2
|----------------------------------|
|----------------------------------|
|----------------------------------|
|--00--0-0-0-0-0h5-3-6-------------|
|--00--0-0-0-0-0h5-3-6-------------|
|--00--0-0-0-0-0h5-3-6-------------| x4



PRE-CHORUS

 Guitar 1 & 2
|-------------------------------|
|-------------------------------|
|-------------------------------|
|--8---10----0---3---10---8-----|
|--8---10----0---3---10---8-----|
|--8---10----0---3---10---8-----|
             PM  PM
 ^^Strum 16x each^^



CHORUS

Guitar1                              This is a little run I Do
|-----------------------------------|------------------|
|--------6------------6-------------|6h8p6---6-------6-|
|--5-777---777-5-777---777----------|------7---7p5h7---| x4
|-----------------------------------|------------------|
|-----------------------------------|------------------|
|-----------------------------------|------------------|
|                                   |
|Guitar2                            |
|-----------------------------------|
|-----------------------------------|
|-----------------------------------|
|-10--8--7--6-----------------------| x2
|-10--8--7--6-----------------------|
|-10--8--7--6-----------------------|



BRIDGE (Play Through Solo)

 Guitar 2
|-------------------------|
|-------------------------|
|-------------------------|
|-3-0-0--0-3-0-0--0h3p0h3-|
|-3-0-0--0-3-0-0--0h3p0h3-|
|-3-0-0--0-3-0-0--0h3p0h3-|



Solo

 Guitar 1
|----------------------------------|
|-14-14-14-14-14-14/15\14\12-12-12-|
|----------------------------------|
|----------------------------------|
|----------------------------------|
|----------------------------------|

|----------------------------------------------------------------------|
|-10--10--10--10--10---12----121312------121312------121312------1312--|
|-12b-12b-12b-12b-12b--------------131213------131213------131213------|
|----------------------------------------------------------------------|
|----------------------------------------------------------------------|
|----------------------------------------------------------------------|

|-----------------------|
|-13/15\13-10-----------|
|-------------13-12-10--|
|-----------------------|
|-----------------------|
|-----------------------|

|-12h13p12p10---------------------------------------------------|
|-------------13p12p10------------------------------------------|
|----------------------13p12p10\5-7*--5-------------------------|
|---------------------------------------7p6p5/3-5*--3-----------|
|-----------------------------------------------------5p4p3p0---|
|-------------------------------------------------------------3-|

|-------------------------------------------------------|
|-6---------8----------10----------13-----------13b^^^--|
|---7p5|------10p7--------12p9--------14p12-------------|
|-------7----------10----------12-----------15----------|
|-------------------------------------------------------|
|-------------------------------------------------------|


BRIDGE
 Guitar 1
|-----------------------------------|
|--13----12-------10----------------|
|-----------------------------------|
|-----------------------------------| x2
|-----------------------------------|
|-----------------------------------|
|                                   |
|Guitar2                            |
|-----------------------------------|
|-----------------------------------|
|-----------------------------------|
|-10--8--7--6-----------------------| x2
|-10--8--7--6-----------------------|
|-10--8--7--6-----------------------|



CHORUS

Guitar1                              This is a little run I Do
|-----------------------------------|------------------|
|--------6------------6-------------|6h8p6---6-------6-|
|--5-777---777-5-777---777----------|------7---7p5h7---| x3
|-----------------------------------|------------------|
|-----------------------------------|------------------|
|-----------------------------------|------------------|
|                                   |
|Guitar2                            |
|-----------------------------------|
|-----------------------------------|
|-----------------------------------|
|-10--8--7--6-----------------------| x2
|-10--8--7--6-----------------------|
|-10--8--7--6-----------------------|
|                                   |
|Guitar 1 Play this final time      |
|-----------------------------------|
|-9-----12----13----15--------------|
|-12b^--15b^--16b^--18b^------------|
|-----------------------------------|
|-----------------------------------|
|-----------------------------------|



OUTRO

 Guitar 1 (Chords or Octaves)
|---------------------------------------|
|---------------------------------------|
|---7--7----5--5----4--4----3--3--3-----|
|--(7)(7)--(5)(5)--(4)(4)--(3)(3)(3)----| x4
|---5--5----3--3----2--2----1--1--1-----|
|---------------------------------------|
|                                       |
|Guitar2                                |
|---------------------------------------|
|---------------------------------------|
|--7-7----------------------------------|
|--7-7--3-3--5-5/6--5--3----------------| x4
|--5-5--3-3--5-5/6--5--3----------------|
|-------3-3--5-5/6--5--3----------------|
|                                       |
|Guitar 3 (This is optional. My band plays this instead of the guitar 1 part)
|---------------------------------------|
|------6-6--8-8--9--8--6h8--------------|
|-7-7-----------------------------------|
|---------------------------------------| x4
|---------------------------------------|
|---------------------------------------|
            

comments powered by Disqus
↑ Back to top | Adelitas Way Tabs for Invincible. Lyrics for acoustic guitar and electric guitar. Tablatures and chords are parodies/interpretations of the original songs. You may use it for private study, scholarship, research or language learning purposes only