» » »

Adelitas Way, I Can Tell Chords (ver.1)

Artists:  A B C D E F G H I J K L M N O P Q R S T U V W X Y Z # 

I Can Tell Chords (ver.1)

Adelitas Way Tabs
 Rating:
4/5 (4 votes)
I Can Tell lessons Tabs too difficult? Try these video lessons and learn fast
1
                Band: Adelitas Way

**** UPDATED NEW AND IMPROVED VERSION ****

C Standard (C F A# D# G C)  2 steps down

Am              F              Cadd9          G             Fadd9         C*              Bm
|---5---|      |---1---|      |---3---|      |---3---|      |---8---|     |---8---|     |---7---|
|---5---|      |---1---|      |---3---|      |---3---|      |---8---|     |---8---|     |---7---|
|---5---|      |---2---|      |---5---|      |---4---|      |--10---|     |---9---|     |---7---|
|---7---|      |---3---|      |---5---|      |---5---|      |--10---|     |--10---|     |---9---|
|---7---|      |---3---|      |---3---|      |---5---|      |---8---|     |--10---|     |---9---|
|---5---|      |---1---|      |---3---|      |---3---|      |---8---|     |---8---|     |---7---|

[Intro]

Am  F  Cadd9 G

[Verse]
      Am
I can tell by the way
 F
When I'm holding you tight
Cadd9
Something is wrong
G
No it's never been right
      Am
I can see by the way
F
That you stare in my eyes
Cadd9
It's empty to you
G
And there's nothing inside

[Pre-Chorus]
          F
What if I told you
                                            Am
That I've been thinking, I've been dreaming of you
                                        F
And all the things I always thought that we'd do
                 G
But it was never enough...

G

[Chorus]
Am             F    Cadd9                 G
I can't figure out, why you don't love me now
Am                   F
So why'd you tear me down
Cadd9               G
I'm faceless in the crowd
F
So tell me is this real
G
'Cause I can't help but feel
                F
I'm heading for heartache
  
[Verse 2]  (See outro for background part of verse)
     Am
Can I make you feel
   F
Like you've never been kissed
     Cadd9
Like a picture you paint
     G
Will I ever be missed
      Am                     F
Would you stay if I told you my love wouldn't change
   Cadd9
If your hair turns grey
   G
If you gain a little weight

[Pre-Chorus]
          F
What if I told you
                                            Am
That I've been thinking, I've been dreaming of you
                                        F
And all the things I always thought that we'd do
                 G
But it was never enough... 

G

[Chorus]
Am             F    Cadd9                 G
I can't figure out, why you don't love me now
Am                   F
So why'd you tear me down
Cadd9               G
I'm faceless in the crowd
F
So tell me is this real
G
'Cause I can't help but feel
                Am          Fadd9   C*    Bm
I'm heading for heartache  (Oh)
                Am            Fadd9  C*     Bm
I'm heading for heart-ache   (Oh yeah...)

[Bridge]
Am                    F    Cadd9   G
I'm not giving you up
               Am       F   Cadd9   G
I'm not giving you up... 

(I'm heading for heart-ache)

[Chorus]
Am             F    Cadd9                 G
I can't figure out, why you don't love me now (you don't love me now)
Am                   F
So why'd you tear me down
Cadd9               G
I'm faceless in the crowd (you don't love me now)
F
So tell me is this real
G
'Cause I can't help but feel
                F
I'm heading for heartache

[Outro]
F
(x2)
C -------------------------------------------0----------------0------|
G ---0-----0-----0-----1-----1---------3---3-----0-----3---3-------0-|
D#-----5-----5-------2-----2-----2---0---0-----------0---0-----------|
A#-------2-----2---3-----3-----3-------------------------------------|
F -0-------------------------------3-----------3---2------------2----|
C -------------------------------------------------------------------|

Note the outro is also played during the second verse
            
Submit corrections

comments powered by Disqus
↑ Back to top | Adelitas Way Chords for I Can Tell. Lyrics for acoustic guitar and electric guitar. 1 Tablatures and chords are parodies/interpretations of the original songs. You may use it for private study, scholarship, research or language learning purposes only