» » »

Turning Tables Tabs (ver.4)

Artists:  A B C D E F G H I J K L M N O P Q R S T U V W X Y Z # 

Turning Tables Tabs (ver.4)

Adele
Rating:
0/5 (0 votes)

Hard to play? Try these video lessons and learn fast.
                (Intro)

Standard Tuning

Intro

--------5--5-------|
---4--4---4--4-----|
-5---5-------------|
-------------------|
-------------------|
-------------------|  x4

Verse
--------3---3-----------3---3-----------4---4-------4-3-----|
---4--4---4--4----4---4---4---4----4--4---5----4--------4---|
-5---5----------5---5------------5---5-------5---5----------|
------------------------------------------------------------|
------------------------------------------------------------|
------------------------------------------------------------|
            
Hard to play? Try these video lessons and learn fast. | Correct




comments powered by Disqus
↑ Back to top | Tablatures and chords are parodies/interpretations of the original songs. You may use it for private study, scholarship, research or language learning purposes only