» » »

Adele, Turning Tables Tabs (ver.6)

Artists:  A B C D E F G H I J K L M N O P Q R S T U V W X Y Z # 

Turning Tables Tabs (ver.6)

Adele Tabs
 Rating:
4/5 (4 votes)
Turning Tables lessons Tabs too difficult? Try these video lessons and learn fast
1
                Turning Tables... 
(i copied it from the original soundtrack, hope its close)

Legend: (own)
R-ring
h-ham

Capo 2

Stanza:
e|---------------5-|---------------5-|---------------5-|---------------5-|
B|0h--3---0h--3----|0h--3---0h--3----|0h--3---0h--3----|0h--3---0h--3----|
G|-----------------|-----------------|-----------------|-----------------|
D|-----------------|-----------------|-----------------|-----------------|
A|2r---------------|2R---------------|-----------------|-----------------|
E|-----------------|-----------------|3R---------------|3R---------------|

e|---------------2-|---------------2-|---------------3-|------------3--2---|
B|0h--3---0h--3----|0h--3---0h--3----|0h--3---0h--3----|0h--3---0h--------3|
G|-----------------|-----------------|-----------------|-------------------|
D|-----------------|-----------------|-----------------|-------------------|
A|-----------------|-----------------|-----------------|-------------------|
E|0R---------------|0R---------------|3----------------|3------------------|

Pre-chorus:

e|---------------0--------|---------------0--------|---------------0--------|--0R--|
B|0h--2h--3R--------3---2-|0h--2h--3R--------3---2-|0h--2h--3R--------2-----|--2R--|
G|------------------------|------------------------|----------------------3-|--0R--|
D|------------------------|------------------------|------------------------|--2R--|
A|------------------------|------------------------|------------------------|--0R--|
E|3R----------------------|0R----------------------|3R----------------------|------|

Chorus:(maybe a bit tricky, a combination of strumming and plucking)


WORD PER WORD INTERPRETATION

e|--5---2---5---2---2R------2-------3---2-----|--5---2---5---2---2R------2-------2h3---2--|
B|--3R------3R------3R--3-------3-----------3-|--3R------3R------3R--3-------3------------|
G|--2R--------------2R------------------------|--2R--------------2R-----------------------|
D|--4R--------------0R------------------------|--4R--------------0R-----------------------|
A|--2R----------------------------------------|--2R---------------------------------------|
E|----------3R--------------------------------|----------3R-------------------------------|

e|------0---2---5---7---5---------------|------------------3--|
B|--3-------3R------7---7---7h---8---7--|--5---7---8---7---3--|
G|----------2R------0R------------------|----------9---7---4--|
D|----------4R--------------------------|----------9---7---5--|
A|----------2R--------------------------|----------7---5---5--|
E|--------------------------------------|------------------3--|
            
Submit corrections

comments powered by Disqus
↑ Back to top | Adele Tabs for Turning Tables. Lyrics for acoustic guitar and electric guitar. 1 Tablatures and chords are parodies/interpretations of the original songs. You may use it for private study, scholarship, research or language learning purposes only