» » »

Adele, Someone Like You 1 Tabs (ver.6)

Artists:  A B C D E F G H I J K L M N O P Q R S T U V W X Y Z # 

Someone Like You 1 Tabs (ver.6)

Adele Tabs
 Rating:
4/5 (4 votes)
Someone Like You 1 lessons Tabs too difficult? Try these video lessons and learn fast
1
                (Intro)
So I found the original tab for this difficult to play as it changed what string
you played it on, so I moved it down to the D, G and B strings to make it easier
to play. I also have a capo on the 4th fret so I can see where I'm playing better,
and so I can play some other parts along with this, but it's not needed. Here is
it without the capo, I'll let you figure it out with:

e|------------------------------------------------------------------|
B|------5-------5-------5-------5-------5-------5-------5-------5---|
G|----6---6---6---6---6---6---6---6---6---6---6---6---6---6---6---6-|
D|--7-------7-------7-------7-------6-------6-------6-------6-------|
A|------------------------------------------------------------------|
E|------------------------------------------------------------------|

e|------------------------------------------------------------------|
B|------7-------7-------7-------7-------7-------7-------7-------7---|
G|----6---6---6---6---6---6---6---6---7---7---7---7---7---7---7---7-|
D|--7-------7-------7-------7-------7-------7-------7-------7-------|
A|------------------------------------------------------------------|
E|------------------------------------------------------------------|

That's what the piano does, but I play it differently. I add a ska-ish rhythm to
that. It gives it more power, but it still works wit the song. For this I put my
capo on the 5th fret so I can use my fingers more wisely, as I only have four (I'm
not using my thumb). I alternate between playing an A with the 5th (A simple power
chord) and playing the parts above as chords. I keep my fingers on all notes, like
this (from capo):

---1st---2nd---3rd---4th---|
e|--0--|--0--|--0--|--0----|
B|--0--|--0--|--0--|--0----|
G|--1--|--1--|--2--|--2----|
D|--2--|--1--|--1--|--2----|
A|--2--|--2--|--2--|--2----|
E|--0--|--0--|--0--|--0----|

I alternate playing the lowest two string (E and A) and playing the entire chord
(I up strum for the whole chord). The order I play it in is

e|------0-----0---0-|
B|------0-----0---0-|
G|------1-----1---1-|
D|------2-----2---2-|
A|--2-2-2-2-2-2-2-2-|
E|--0-0-0-0-0-0-0-0-|

e|------0-----0---0-|
B|------0-----0---0-|
G|------1-----1---1-|
D|------1-----1---1-|
A|--2-2-2-2-2-2-2-2-|
E|--0-0-0-0-0-0-0-0-|

e|------0-----0---0-|
B|------0-----0---0-|
G|------2-----2---2-|
D|------1-----1---1-|
A|--2-2-2-2-2-2-2-2-|
E|--0-0-0-0-0-0-0-0-|

e|------0-----0---0-|
B|------0-----0---0-|
G|------2-----2---2-|
D|------2-----2---2-|
A|--2-2-2-2-2-2-2-2-|
E|--0-0-0-0-0-0-0-0-|

Keep in mind that this isn't how they play it in the song, this is just my
creative interpretation. It might sound better with different bass chords, but
this sounds decent without. If you could get more people to play, have someone
play just the bass A chord (Or have them do something better), have one person do
the piano part, and have another do the chords. I haven't had a chance to do that
but I think it would sound nice.

Also, I'm not sure if it has different parts later, but it might. I don't know
them, but I could figure it out.
            
Submit corrections

comments powered by Disqus
↑ Back to top | Adele Tabs for Someone Like You 1. Lyrics for acoustic guitar and electric guitar. 1 Tablatures and chords are parodies/interpretations of the original songs. You may use it for private study, scholarship, research or language learning purposes only