» » »

Someone Like You 1 Tabs (ver.13)

Artists:  A B C D E F G H I J K L M N O P Q R S T U V W X Y Z # 

Someone Like You 1 Tabs (ver.13)

Adele
Rating:
0/5 (0 votes)

Hard to play? Try these video lessons and learn fast.
                I noticed there hadn't been a tab submitted for the entire song, without using a capo. 
This is how I play it.
-Joyce


Intro + Verse 1 (Repeat 4x)

    A                               E
            I heard that you're             settled down that you'd
e-------0-------0-------0-------0-------0-------0-------0-------0-----|
b---------------------------------------------------------------------|
g-----2---2---2---2---2---2---2---2---1---1---1---1---1---1---1---1---|
d---------------------------------------------------------------------|
a---0-------0-------0-------0-------2-------2-------2-------2---------|
E---------------------------------------------------------------------|

    F#m                             D
            found a girl and you're         married now
e-------2-------2-------2-------2-------2-------2-------2-------2-----|
b---------------------------------------------------------------------|
g-----2---2---2---2---2---2---2---2---2---2---2---2---2---2---2---2---|
d-----------------------------------0-------0-------0-------0---------|
a---4-------4-------4-------4-----------------------------------------|
E---------------------------------------------------------------------|


Pre-chorus 1

    E               F#m7/C#         D
   I hate to turn up...
e-------0-------0-------0-------0-------------------------------------|
b---------------------------------------3-------3-------3-------3-----|
g-----1---1---1---1---2---2---2---2---2---2---2---2---2---2---2---2---|
d-----------------------------------0-------0-------0-------0---------|
a---2-------2-------4-------4-----------------------------------------|
E---------------------------------------------------------------------|

    E               F#m7/C#         D               Dsus2
   I'd hoped you'd see...
e-------0-------0-------0-------0-------2-------2-------0-------0-----|
b---------------------------------------------------------------------|
g-----1---1---1---1---2---2---2---2---2---2---2---2---2---2---2---2---|
d-----------------------------------0-------0-------0-------0---------|
a---2-------2-------4-------4-----------------------------------------|
E---------------------------------------------------------------------|

    D
e-------2-------2----|
b--------------------|
g-----2---2---2---2--|
d---0-------0--------|
a--------------------|
E--------------------|


Chorus (repeat 5x)

    A               E               F#m             D
    Nevermind I'll find someone     like you
e-------0-------0-------0-------0-------2-------2-------2-------2------|
b----------------------------------------------------------------------|
g-----2---2---2---2---1---1---1---1---2---2---2---2---2---2---2---2----|
d---------------------------------------------------0-------0----------|
a---0-------0-------2-------2-------4-------4--------------------------|
E----------------------------------------------------------------------|

Chorus-end

    D
e-------2-------2----|
b--------------------|
g-----2---2---2---2--|
d---0-------0--------|
a--------------------|
E--------------------|


Verse 2 (repeat 2x)

    A                               E
            You know how the                time flies
e-------0-------0-------0-------0-------0-------0-------0-------0-----|
b---------------------------------------------------------------------|
g-----2---2---2---2---2---2---2---2---1---1---1---1---1---1---1---1---|
d---------------------------------------------------------------------|
a---0-------0-------0-------0-------2-------2-------2-------2---------|
E---------------------------------------------------------------------|

    F#m                             D
        Only yesterday was the             time of our lives
e-------2-------2-------2-------2-------2-------2-------2-------2-----|
b---------------------------------------------------------------------|
g-----2---2---2---2---2---2---2---2---2---2---2---2---2---2---2---2---|
d-----------------------------------0-------0-------0-------0---------|
a---4-------4-------4-------4-----------------------------------------|
E---------------------------------------------------------------------|


Pre-chorus 2

      E             F#m7/C#         D
    I hate to turn up...
e-------0-------0-------0-------0-------------------------------------|
b---------------------------------------3-------3-------3-------3-----|
g-----1---1---1---1---2---2---2---2---2---2---2---2---2---2---2---2---|
d-----------------------------------0-------0-------0-------0---------|
a---2-------2-------4-------4-----------------------------------------|
E---------------------------------------------------------------------|

    E               F#m7/C#         D               Dsus2
I'd hoped you'd see...
e-------0-------0-------0-------0-----------------------0-------0-----|
b---------------------------------------3-------3---------------------|
g-----1---1---1---1---2---2---2---2---2---2---2---2---2---2---2---2---|
d-----------------------------------0-------0-------0-------0---------|
a---2-------2-------4-------4-----------------------------------------|
E---------------------------------------------------------------------|

    D               D5addG#
e-------2-------2-------4-------4-------|
b---------------------------------------|
g-----2---2---2---2---2---2---2---2-----|
d---0-------0-------0-------0-------0---|
a---------------------------------------|
E---------------------------------------|


Chorus (repeat 4x)

    A              E                F#m             D
    Nevermind I'll find someone         like you
e-------0-------0-------0-------0-------2-------2-------2-------2------|
b----------------------------------------------------------------------|
g-----2---2---2---2---1---1---1---1---2---2---2---2---2---2---2---2----|
d---------------------------------------------------0-------0----------|
a---0-------0-------2-------2-------4-------4--------------------------|
E----------------------------------------------------------------------|


Bridge
    E                               F#m
Nothing compares, no worries...     regrets and mistakes...
e-------0-------0-------0-------0-------2-------2-------2-------2-----|
b---------------------------------------------------------------------|
g-----1---1---1---1---1---1---1---1---2---2---2---2---2---2---2---2---|
d---------------------------------------------------------------------|
a---2-------2-------2-------2-------4-------4-------4-------4---------|
E---------------------------------------------------------------------|

    A                               Bm              C#m
Who would've known how              bittersweet this would taste
e-------0-------0-------0-------0-------2-------2-------4-------4-----|
b---------------------------------------------------------------------|
g-----2---2---2---2---2---2---2---2---4---4---4---4---6---6---6---6---|
d-----------------------------------4-------4-------6-------6---------|
a---0-------0-------0-------0-----------------------------------------|
E---------------------------------------------------------------------|

    D               D5addG#
e-------2-------2-------4-------4-------|
b---------------------------------------|
g-----2---2---2---2---2---2---2---2-----|
d---0-------0-------0-------0-------0---|
a---------------------------------------|
E---------------------------------------|


Chorus variation

    A               E             F#m          D
    Nevermind I'll find someone like you,                  I wish
e---0---------------0--------------2-----------2-------------------------|
b------------------------------------------------------------------------|
g---2---------------1--------------2-----------2-------------------------|
d----------------------------------------------0-------------------------|
a---0---------------2--------------4-------------------------------------|
E------------------------------------------------------------------------|

    A               E              F#m         D
    nothing but the best for       you                     Don't for-
e---0---------------0---------------2----------2-------2----------------|
b-----------------------------------------------------------------------|
g---2---------------1---------------2----------2-------2----------------|
d----------------------------------------------0-------0----------------|
a---0---------------2---------------4-----------------------------------|
E-----------------------------------------------------------------------|

    A               E              F#m              D
    get me, I       begged,        I remember you     said, sometimes it
e-----------0---------------0---------------2---------------2------------|
b------------------------------------------------------------------------|
g-------2-------2-------1-------1-------2-------2-------2-------2--------|
d---------------------------------------------------0---------------0----|
a---0---------------0---------------0------------------------------------|
E------------------------------------------------------------------------|

    A               E              F#m              D
lasts in love, but sometimes it hurts instead.
e-----------0---------------0---------------2----------------2-----------|
b------------------------------------------------------------------------|
g-------2-------2-------1-------1-------2-------2--------2-------2-------|
d----------------------------------------------------0-------------------|
a---0---------------0---------------0------------------------------------|
E------------------------------------------------------------------------|


Chorus (repeat 5x)

    A               E              F#m              D
    Nevermind I'll find someone    like you
e-------0-------0-------0-------0-------2-------2-------2-------2------|
b----------------------------------------------------------------------|
g-----2---2---2---2---1---1---1---1---2---2---2---2---2---2---2---2----|
d---------------------------------------------------0-------0----------|
a---0-------0-------2-------2-------4-------4--------------------------|
E----------------------------------------------------------------------|


Outro

    A               E              F#m              D
e----------------------------------------------------------------------|
b-------2-------2-------0-------0-------2-------2-------3-------3------|
g---------2-------2-------1-------1-------2-------2-------2-------2----|
d---------------------------------------------------0-------0----------|
a---0-------0-------2-------2-------4-------4--------------------------|
E----------------------------------------------------------------------|

    D               A
e-----------------------|
b-------3---3---3---2---|
g-------------------2---|
d---0---------------2---|
a-------------------0---|
E-----------------------|
            
Hard to play? Try these video lessons and learn fast. | Correct




comments powered by Disqus
↑ Back to top | Tablatures and chords are parodies/interpretations of the original songs. You may use it for private study, scholarship, research or language learning purposes only