» » »

Adele, Someone Like You 1 Tabs (ver.12)

Artists:  A B C D E F G H I J K L M N O P Q R S T U V W X Y Z # 

Someone Like You 1 Tabs (ver.12)

Adele Tabs
 Rating:
4/5 (4 votes)
Someone Like You 1 lessons Tabs too difficult? Try these video lessons and learn fast
1
                -------------------------------------------------------------------------------
-------------------------------------------------------------------------------

Tuning: Standard


VERSE: REPEAT x 4

e|------0-------0-------0-------0-------0-------0-------0--------------------|
B|----2---2---2---2---2---2---2---2---2---2---2---2---2---2------------------|
G|---------------------------------------------------------------------------|
D|---------------------------------------------------------------------------|
A|--0-------0-------0-------0------------------------------------------------|
E|----------------------------------4-------4-------4-------4----------------|


e|------2-------2-------2-------2-------2-------2-------2-------2------------|
B|----2---2---2---2---2---2---2---2---3---3---3---3---3---3---3---3----------|
G|---------------------------------------------------------------------------|
D|----------------------------------0-------0-------0-------0----------------|
A|---------------------------------------------------------------------------|
E|--2-------2-------2-------2------------------------------------------------|


BRIDGE

e|------0-------0-------0-------0--------------------------------------------|
B|--------2-------2-------2-------2-----3-------3-------3-------3------------|
G|----1-------1-------2-------2-------2---2---2---2---2---2---2---2----------|
D|----------------------------------0-------0-------0-------0----------------|
A|---------------------------------------------------------------------------|
E|--0-------0-------2-------2------------------------------------------------|


e|------0-------0-------0-------0-------2-------2-------0--------0-----------|
B|--------2-------2-------2-------2-------3-------3--------3-------3---------|
G|----1-------1-------2-------2-------2-------2-------1--------1-------------|
D|----------------------------------0-------0-------0--------0---------------|
A|---------------------------------------------------------------------------|
E|--0-------0-------2-------2------------------------------------------------|


e|------2-------2------------------------------------------------------------|
B|--------3-------3----------------------------------------------------------|
G|----2-------2--------------------------------------------------------------|
D|--0-------0----------------------------------------------------------------|
A|---------------------------------------------------------------------------|
E|---------------------------------------------------------------------------|


CHORUS (REPEAT x 5)

e|------5-------5-------4-------4-------5-------5-------5-------5------------|
B|--------2-------2-------0-------0-------2-------2-------3-------3----------|
G|----2-------2-------1-------1-------2-------2-------2-------2--------------|
D|--------------------------------------------------0-------0----------------|
A|--0-------0----------------------------------------------------------------|
E|------------------0-------0-------2-------2--------------------------------|


AFTER CHORUS, PLAY ONCE:


e|------5-------5------------------------------------------------------------|
B|--------3-------3----------------------------------------------------------|
G|----2-------2--------------------------------------------------------------|
D|--0-------0----------------------------------------------------------------|
A|---------------------------------------------------------------------------|
E|---------------------------------------------------------------------------|


REPEAT VERSE x2 (AS ABOVE)

THEN, REPEAT BRIDGE (AS ABOVE)

AFTER BRIDGE, PLAY ONCE:


e|------4-------4------------------------------------------------------------|
B|--------3-------3----------------------------------------------------------|
G|----2-------2--------------------------------------------------------------|
D|--0-------0----------------------------------------------------------------|
A|---------------------------------------------------------------------------|
E|---------------------------------------------------------------------------|


REPEAT CHORUS x 4 (AS ABOVE)

THEN, PLAY C-PART:


e|------0-------0-------0-------0-------2-------2-------2-------2------------|
B|--------2-------2-------2-------2-------2-------2-------2-------2----------|
G|----1-------1-------1-------1-------2-------2-------2-------2--------------|
D|---------------------------------------------------------------------------|
A|---------------------------------------------------------------------------|
E|--0-------0-------0-------0-------2-------2-------2-------2----------------|


e|------5-------5-------5-------5-------7-------7-------5-------5------------|
B|--------0-------0-------0-------0-------7-------7-------5-------5----------|
G|----4-------4-------4-------4-------7-------7-------6-------6--------------|
D|---------------------------------------------------------------------------|
A|---------------------------------------------------------------------------|
E|--0-------0-------0-------0-------7-------7-------5-------5----------------|


e|------5-------5-------7-------7--------------------------------------------|
B|--------7-------7-------7-------7------------------------------------------|
G|----7-------7-------7-------7----------------------------------------------|
D|---------------------------------------------------------------------------|
A|--5-------5-------7-------7------------------------------------------------|
E|---------------------------------------------------------------------------|


REPEAT CHORUS AS WHOLE CHORDS 


e|--5------------------4-------------------5-------------------5-------------|
B|--2------------------0-------------------2-------------------3-------------|
G|--2------------------1-------------------2-------------------2-------------|
D|-------------------------------------------------------------0-------------|
A|--0------------------------------------------------------------------------|
E|---------------------0-------------------2---------------------------------|


e|--5------------------4-------------------5-------------------5-------------|
B|--2------------------0-------------------2-------------------3-------------|
G|--2------------------1-------------------2-------------------2-------------|
D|-------------------------------------------------------------0-------------|
A|--0------------------------------------------------------------------------|
E|---------------------0-------------------2---------------------------------|


REPEAT CHORUS x6 (AS ABOVE/EARLIER)


AFTER CHORUS, PLAY OUTRO (QUIETLY)


e|------0-------0-------0-------0--------------------------------------------|
B|--------2-------2-------2-------2-----3-------3-------3-------3------------|
G|----1-------1-------2-------2-------2---2---2---2---2---2---2---2----2-----|
D|----------------------------------0-------0-------0-------0----------2-----|
A|---------------------------------------------------------------------0-----|
E|--0-------0-------2-------2------------------------------------------------|
            
Submit corrections

comments powered by Disqus
↑ Back to top | Adele Tabs for Someone Like You 1. Lyrics for acoustic guitar and electric guitar. 1 Tablatures and chords are parodies/interpretations of the original songs. You may use it for private study, scholarship, research or language learning purposes only