» » »

Adele, Someone Like You 1 Tabs (ver.7)

Artists:  A B C D E F G H I J K L M N O P Q R S T U V W X Y Z # 

Someone Like You 1 Tabs (ver.7)

Adele Tabs
 Rating:
4/5 (4 votes)
Someone Like You 1 lessons Tabs too difficult? Try these video lessons and learn fast
1
                My first tab, hope you like it!

Standard tuning and no capo!

Chords:
A      002220
C#m/G# 400120 (000120)
F#m    244222 (You don't use the two strings with 4 just do: 222222)
D      000232
E      022100

INTRO 4x:

 A                                  C#m/G#
e-----0-------0-------0-------0-----------0-------0-------0-------0-------|
B---2---2---2---2---2---2---2---2-------2---2---2---2---2---2---2---2-----|
G---------2-------2-------2-------------------1-------1-------1-----------|
D-------------------------------------------------------------------------|
A-0---------------------------------(0)-----------------------------------|
E------------------------------------4------------------------------------|
                           (if 4 is to hard hit 0 at the A-string)


F#m                                   D
------2-------2-------2-------2------------2-------2-------2-------2------|
----2---2---2---2---2---2---2---2--------3---3---3---3---3---3---3---3----|
----------2-------2-------2--------------------2-------2-------2----------|
--------------------------------------0-----------------------------------|
--------------------------------------------------------------------------|
-2------------------------------------------------------------------------|


BRIDGE 1x:

E                 F#m                  D
------0-------0----------2-------2----------2-------2-------2-------2------|
----0---0---0---0------2---2---2---2------3---3---3---3---3---3---3---3----|
----------1------------------2------------------2-------2-------2----------|
---------------------------------------0-----------------------------------|
---------------------------------------------------------------------------|
-0------------------2------------------------------------------------------|

E                 F#m                  D                 E
------0-------0----------2-------2----------2-------2--------0-------0-----|
----0---0---0---0------2---2---2---2------3---3---3---3----0---0---0---0---|
----------1------------------2------------------2----------------1---------|
---------------------------------------0-----------------------------------|
---------------------------------------------------------------------------|
-0------------------2------------------------------------0-----------------|

F#m
------2-------2-------2-------2---|
----2---2---2---2---2---2---2---2-|
----------2-------2-------2-------|
----------------------------------|
----------------------------------|
-2--------------------------------|

VERSE: 4X
A                   E                  F#m               D
------0-------0----------0-------0----------2-------2---------2-------2-----|
----2---2---2---2------0---0---0---0------2---2---2---2-----3---3---3---3---|
----------2------------------1------------------2-----------------2---------|
----------------------------------------------------------0-----------------|
-0--------------------------------------------------------------------------|
--------------------0-------------------2-----------------------------------|
            
Submit corrections

comments powered by Disqus
↑ Back to top | Adele Tabs for Someone Like You 1. Lyrics for acoustic guitar and electric guitar. 1 Tablatures and chords are parodies/interpretations of the original songs. You may use it for private study, scholarship, research or language learning purposes only