» » »

Adele, Someone Like You 1 Tabs (ver.4)

Artists:  A B C D E F G H I J K L M N O P Q R S T U V W X Y Z # 

Someone Like You 1 Tabs (ver.4)

Adele Tabs
 Rating:
4/5 (4 votes)
Someone Like You 1 lessons Tabs too difficult? Try these video lessons and learn fast
1
                It's pretty easy. Hard part's sounding as good as Adele singing it :P
I tabbed it like I hear it. Enjoy!

Standard Tuning.

CAPO on 2 (Finger placings relative to capo)


INTRO & VERSE:
    G                                  G/Gb
||------------------------------------------------------------------------|
||------3-------3-------3-------3----------3-------3-------3-------3------|
||----4---4---4---4---4---4---4---4------4---4---4---4---4---4---4---4----|
||------------------------------------------------------------------------|
||------------------------------------------------------------------------|
||--3-------3-------3-------3----------2-------2-------2-------2----------|

   Em                                  C
||------0-------0-------0-------0----------0-------0-------0-------0------|
||--------0-------0-------0-------0------1---1---1---1---1---1---1---1----|
||----0-------0-------0-------0-------------------------------------------|
||------------------------------------------------------------------------|
||-------------------------------------3-------3-------3-------3----------|
||--0-------0-------0-------0---------------------------------------------|


PRE-CHORUS:
    D               Em                C
||------------------------------------------------------------------------|
||------3-------3-------3-------3---------1------ -1--------1--------1----|
||----0---0---0---0---0---0---0---0-----0---0----0---0----0---0----0---0--|
||--2-------2-------2------2----------------------------------------------|
||------------------------------------3--------3--------3--------3--------|
||------------------------------------------------------------------------|


CHORUS:
    G                 G/Gb              Em                C
||-----3-------3---------3--------3---------3-------3---------3-------3---|
||---3---3---3---3-----3---3----3---3---------3-------3-----3---3---3---3-|
||----------------------------------------0-------0-----------------------|
||--------------------------------------2-------2-------------------------| x3
||--------------------------------------------------------3-------3-------|
||-3-------3---------2--------2-------------------------------------------|

||-----3-------3---------3--------3---------0--------0--------3-------3---|
||---3---3---3---3-----3---3----3---3---------0--------0----1---1---1---1-|
||----------------------------------------0--------0----------------------|
||------------------------------------------------------------------------|
||--------------------------------------------------------3-------3-------|
||-3-------3---------2--------2---------0--------0------------------------|

||------------------------------------------0--------0--------3-------3---|
||-----3-------3------ --3--------3-----------0--------0----1---1---1---1-|
||---4---3---4---4--- -4---4----4---4-----0--------0----------------------|
||------------------------------------------------------------------------|
||--------------------------------------------------------3-------3-------|
||-3-------3---------2--------2---------0--------0------------------------|


BRIDGE:
  D/F#                                  Em
||------------------------------------------0-------0---------0--------0---|
||-----3--------3--------3--------3-------0---0----0---0----0---0----0---0-|
||---4---4----4---4----4---4----4---4--------------------------------------|
||-------------------------------------------------------------------------|
||-------------------------------------------------------------------------|
||-2--------2--------2--------2---------0--------0--------0--------0-------|
   Nothing compares ......              Regrets and mistakes...

   C                                   Am                Bm
||-----3--------3--------3-------3---------3--------3--------2--------2----|
||-------3--------3--------3-------3-----1---1----1---1----3---3----3---3--|
||---0--------0--------0--------0------------------------------------------|
||-------------------------------------------------------------------------|
||-3--------3--------3--------3--------0--------0--------2--------2--------|
||-------------------------------------------------------------------------|
  Who would have known how     bitter- sweet             this would

  C                 D
||-----3--------3--------5--------5-----|
||---3---3----3---3----3---3----3---3---|
||--------------------------------------|
||-------------------0--------0---------|
||-3--------3---------------------------|
||--------------------------------------|
   taste....
            
Submit corrections

comments powered by Disqus
↑ Back to top | Adele Tabs for Someone Like You 1. Lyrics for acoustic guitar and electric guitar. 1 Tablatures and chords are parodies/interpretations of the original songs. You may use it for private study, scholarship, research or language learning purposes only