» » »

Adele, Set Fire To The Rain Tabs (ver.4)

Artists:  A B C D E F G H I J K L M N O P Q R S T U V W X Y Z # 

Set Fire To The Rain Tabs (ver.4)

Adele Tabs
Rating:
0/5 (0 votes)
Set Fire To The Rain lessons Tabs too difficult? Try these video lessons and learn fast
                Adele  -       Set Fire to the Rain

Piano playing 

00:09 Intro 
G|---------------------------|---------------------------|-
D|---------------------------|---------------------------|-
A|--5--5---8--8---3--3-------|--5--5---8--8----3--3------|-
E|---------------------1/3-3-|---------------------1/3-3-|-
I let it fall, my heart,
And as it fell you rose to claim it.
It was dark and I was over,
Until you kissed my lips and you saved me

00:27 Verse 
G|-------------------------------|--------------------------------------|-
D|-------------------------------|------------7-7-7-7-7-7---------------|-
A|--5-5-5-5-8-8-8-8/3-3-3-3------|----5-5-5-5------------/3-3-3-3-------|-
E|-5-----------------------1-3/3-|-3/5----------------------------1/3-5-|-
My hands they're strong,
but my knees were far too weak,
To stand in your arms
without falling to your your feet,

00:43 Bridge 
G|-------------------------------------------------------------|-
D|-------------------------------------------------------------|-
A|0-1-1/1-1/1-1-1/3-3-3-3/5-5-5-5-5-5-5--0-1-1/1-1/1-3-5-3-3-5-|-
E|-------------------------------5-----------------------------|-
But there's a side to you that I never knew, I never knew.
All the things you'd say, they were never true, never true,
And the games you'd play, you would always, always win.

00:59 Chorus                                         
G|------------------------------------------------------------------------|
D|----------------------7L-5L-------3L-5/5--------------------------------|
A|-33333333333/12/5-5-5-------5-3/3-------/5-3-5--5-5-7-8--5-8/8--8-7-3-3-|
E|------------------------------------------------------------------------|
But I set fire to the rain,
Watched it pour as I touched your face,
well it burned while I cried,
Cause I heard it screaming out your name, your name

01:17 verse 
G|-------------------------------|--------------------------------------|-
D|-------------------------------|------------7-7-7-7-7-7---------------|-
A|--5-5-5-5-8-8-8-8/3-3-3-3------|----5-5-5-5------------/3-3-3-3-------|-
E|-5-----------------------1-3/3-|-3/5----------------------------1/3-5-|-
When I lay with you
I could stay there,
Close my eyes, 
feel you're here forever,
You and me together, nothing is better!

01:37 bridge 
G|-------------------------------------------------------------|-
D|-------------------------------------------------------------|-
A|0-1-1/1-1/1-1-1/3-3-3-3/5-5-5-5-5-5-5--0-1-1/1-1/1-3-5-3-3-5-|-
E|-------------------------------5-----------------------------|-
Coz there's a side to you that I never knew, I never knew.
All the things you'd say, they were never true, never true,
And the games you'd play, you would always win, always win.


01:50 Chorus (X2)                                          
G|-----------------------------------------------------------------------|-
D|----------------------5-7-5----3-5-------------------------------------|
A|-33333333333/12/5-5-5-------5-3---/5-8-5-7-5-8-7-5-5-7-8-3-5-3-8-7-3-3-|
E|-----------------------------------------------------------------------|
But I set fire to the rain,
Watched it pour as I touched your face,
well it burned while I cried,
Cause I heard it screaming out your name, your name

G|-----------------------------------------------------------------------|-
D|----------------------5-7-5----3-5-------------------------------------|
A|-33333333333/12/5-5-5-------5-3---/5-8-5-7-5-8-7-5-5-7-8-3-5-3-8-7-3-3-|
E|-----------------------------------------------------------------------|
I set fire to the rain
And I threw us into the flames
And it felt something die,
Cause I knew that that was the last time, the last time!


02:25 Riff sometimes I wake up by the door... 
G|----------------------------|----------------------------|
D|-5-3/3-5/5-7--2-22222-2/3-5-|-5-3/3-5/5-7--2-22222-2/3-5-|
A|----------------------------|----------------------------|
E|----------------------------|----------------------------|
Sometimes I wake up by the door, 
That heart you caught, must be waiting for you, 
Even now when we're already over,
I can't help myself from looking for you


02:45 Chorus (X2)
G|------------------------------------------------------------------------|
D|----------------------7L-5L-------3L-5/5--------------------------------|
A|-33333333333/12/5-5-5-------5-3/3-------/5-3-5--5-5-7-8--5-8/8--8-7-3-3-|
E|------------------------------------------------------------------------|
I set fire to the rain,
Watched it pour as I touched your face,
well it burned while I cried,
Cause I heard it screaming out your name, your name

G|------------------------------------------------------------------------|
D|----------------------7L-5L-------3L-5/5--------------------------------|
A|-33333333333/12/5-5-5-------5-3/3-------/5-3-5--5-5-7-8--5-8/8--8-7-3-3-|
E|------------------------------------------------------------------------|
I set fire to the rain
And I threw us into the flames
And it felt something die,
Cause I knew that that was the last time, the last time!


03:20 Riff oohh >> 03:57 end 
G|------------------------------------------------------------------------|
D|----------------------7L-5L-------3L-5/5--------------------------------|
A|-33333333333/12/5-5-5-------5-3/3-------/5-3-5--5-5-7-8--5-8/8--8-7-3-3-|
E|------------------------------------------------------------------------|
        Let it burn........... Let it burn........... Let it burn...........
            

comments powered by Disqus
↑ Back to top | Adele Tabs for Set Fire To The Rain. Lyrics for acoustic guitar and electric guitar. Tablatures and chords are parodies/interpretations of the original songs. You may use it for private study, scholarship, research or language learning purposes only