» » »

Set Fire To The Rain Chords (ver.11)

Artists:  A B C D E F G H I J K L M N O P Q R S T U V W X Y Z # 

Set Fire To The Rain Chords (ver.11)

Adele
Rating:
0/5 (0 votes)

Hard to play? Try these video lessons and learn fast.
                "(0)
Tab at the bottom of the page

Please Rate

Intro: Dm, F, C, Gm

Verse:

          Dm       F
I let it fall, my heart,
          C                Gm
And as it fell you rose to claim it.
       Dm                 F
It was dark and I was over,
          C                       C
Until you kissed my lips and you saved me

Verse
    Dm            F....
My hands they're strong,
but my knees were far too weak,
Stand in your arms
without fall to your your feet,

Refrain:
              Bb                   Gm
But there's a side to you that I never knew, I never knew.
           Dm                                 Dm
All the things you'd say, they where never true, never true,
          Bb                     C
And the games you'd play, you would always, always win.

[Chorus: ]
           Dm
But I set fire to the rain,
         C
Watch it pour as I touched your face,
     Gm
well it burn while I cry,
                              Dm              C
Cause I heard it screaming out your name, your name!

Verse:
When I'm with you
I could stay there,
Close my eyes, feel you're here forever,
You and me together, nothing is better!

Refrain:
Cause there's a side to you that I never, never knew,
All the things you'd say they where never true, never true,
And the games you'd play, you would always, always win.

[Chorus: ]
But I set fire to the rain,
Watch it pour as I touched your face,
well it burned while I cry,
Cause I heard it screaming out your name, your name!
I set fire to the rain
And I threw us into the flames
And it felt something die,
Cause I knew that that was the last time, the last time!

Bridge:
         Bb                F/A
Sometimes I wake up by the door,
         Am                          C
That heart you caught, must be waiting for you,
     Bb                      F/A
Even now when we're already over,
     Am                            C
I can't help myself from looking for you

[Chorus: ]
I set fire to the rain,
Watch it pour as I touch your face,
well it burn when I cry,
Cause I heard it screaming your name, your name
I set fire to the rain,
And I threw us into the flames
Cause I knew that was the last time
The last time, oh, oh!

Outro: Chorus Chords

Let it burn!

Let it burn!

if you wanna play like the piano, transpose this tab 5 steps down
and put a capo on the 5th fret and play the intro and the verse like this:

   Am                 C                      G
e|--0---------0-------0----------0--1--0---------------------------------|
B|-------1---------1--------1-------------3--3-----0-----3-----0---------|
G|----2----2----2--------0----0-----------------0-----0-----0------------|
D|-----------------------------------------------------------------------|
A|--0-----------------3--------------------------------------------------|
E|-------------------------------------------3---------------------------|

first time it's Dm (Gm), 2nd it's ends with a G (C) in the verse
   Dm
e|--1----------1------------|
B|--------3----------3------|
G|-----2-----2----2-----2---|
D|--0-----------------------|
A|--------------------------|
E|--------------------------|

    G
e|----------------------------|
B|--1-----1-----1--0----------|
G|-----0-----0--------2--0----|
D|----------------------------|
A|----------------------------|
E|--3-------------------------|
"            
Hard to play? Try these video lessons and learn fast. | Correct




comments powered by Disqus
↑ Back to top | Tablatures and chords are parodies/interpretations of the original songs. You may use it for private study, scholarship, research or language learning purposes only