» » »

Adele, Many Shades Of Black Tabs (ver.1)

Artists:  A B C D E F G H I J K L M N O P Q R S T U V W X Y Z # 

Many Shades Of Black Tabs (ver.1)

Adele Tabs
Rating:
0/5 (0 votes)
Many Shades Of Black lessons Tabs too difficult? Try these video lessons and learn fast
                ---------------------------------------------------------------------------
                           Adele - Many Shades Of Black 
----------------------------------------------------------------------------



Tunning: E A D G B E


Intro:
    G            A  Bb           A  G            A  Bb
e|---------------------------------------------------------------|
B|---------------------------------------------------------------|
G|---------------------------------------------------------------|
D|--5-5-5-5-5-5--7--8-8-8-8-8-8--7--5-5-5-5-5-5--7--8-8-8-8-8-8--|
A|--5-5-5-5-5-5--7--8-8-8-8-8-8--7--5-5-5-5-5-5--7--8-8-8-8-8-8--|
E|--3-3-3-3-3-3--5--6-6-6-6-6-6--5--3-3-3-3-3-3--5--6-6-6-6-6-6--| (x3)

    C
e|---------|
B|---------|
G|---------|
D|--10-----|
A|--10-----|
E|--8------|



Verse


    C     F    A    D    G    C     A    D    Eb   F    A
e|-----------------------------------------------------------|
B|-----------------------------------------------------------|
G|------------------7--------------------7-------------------|
D|--10----3----7----7----5----10----7----7----2----3----7----|
A|--10----3----7----5----5----10----7----5----2----3----7----|
E|--8-----1----5---------3----8-----5---------0----1----5----|



Chorus

    Eb   F    Bb A  G  F    Eb   F    G    D    Eb   F    G  Bb G  Bb G  Bb
e|--------------------------------------------------------------------------|
B|--------------------------------------------------------------------------|
G|-----------------------------------------7--------------------------------|
D|--2----3----8--7--5--3----2----3----5----7----2----3----5--8--5--8--5--8--|
A|--2----3----8--7--5--3----2----3----5----5----2----3----5--8--5--8--5--8--|
E|--0----1----6--5--3--1----0----1----3---------0----1----3--6--3--6--3--6--|



Verse


    C     F    A    D    G    C     A    D    Eb   F    A
e|-----------------------------------------------------------|
B|-----------------------------------------------------------|
G|------------------7--------------------7-------------------|
D|--10----3----7----7----5----10----7----7----2----3----7----|
A|--10----3----7----5----5----10----7----5----2----3----7----|
E|--8-----1----5---------3----8-----5---------0----1----5----|


Chorus

    Eb   F    Bb A  G  F    Eb   F    G    D    Eb   F    G  Bb G  Bb G  Bb
e|--------------------------------------------------------------------------|
B|--------------------------------------------------------------------------|
G|-----------------------------------------7--------------------------------|
D|--2----3----8--7--5--3----2----3----5----7----2----3----5--8--5--8--5--8--|
A|--2----3----8--7--5--3----2----3----5----5----2----3----5--8--5--8--5--8--|
E|--0----1----6--5--3--1----0----1----3---------0----1----3--6--3--6--3--6--|


Solo

e|---------------------------------|
B|-12^13---13^14--13p11------------|
G|-----------------------12~~~~~---|
D|---------------------------------|
A|---------------------------------|
E|---------------------------------|

e|------------------13-------------|
B|--11p10-----13^-(hold)-^13-------|
G|------------------------------12-|
D|---------------------------------|
A|---------------------------------|
E|---------------------------------|

e|------------------------------------------------------|
B|--10-11-13--10-11-13-------15^18^15^18--15^18---------|
G|-------------------------------------------------12---|
D|------------------------------------------------------|
A|------------------------------------------------------|
E|------------------------------------------------------|

e|-------------------------------------------------------------------------|
B|--20^22-20^22--17^18-17^18-17---------10---/10-11-13^15--13-11--13~~~~---|
G|----------------------------------/12------------------------------------|
D|-------------------------------------------------------------------------|
A|-------------------------------------------------------------------------|
E|-------------------------------------------------------------------------|

e|-------------------------------------------------|
B|---20^22^20------18---------15-17-18-17-15-------|
G|-------------19---------17------------------17---|
D|-------------------------------------------------|
A|-------------------------------------------------|
E|-------------------------------------------------|

e|----------------------------------------21^--21^---|
B|-----15-17-18-17-20-18-20-18-20-20^----------------|
G|--17-----------------------------------------------|
D|---------------------------------------------------|
A|---------------------------------------------------|
E|---------------------------------------------------|


Chorus

    Eb   F    Bb A  G  F    Eb   F    G    D    Eb   F    G  Bb G  Bb G  Bb
e|--------------------------------------------------------------------------|
B|--------------------------------------------------------------------------|
G|-----------------------------------------7--------------------------------|
D|--2----3----8--7--5--3----2----3----5----7----2----3----5--8--5--8--5--8--|
A|--2----3----8--7--5--3----2----3----5----5----2----3----5--8--5--8--5--8--|
E|--0----1----6--5--3--1----0----1----3---------0----1----3--6--3--6--3--6--|
            

comments powered by Disqus
↑ Back to top | Adele Tabs for Many Shades Of Black. Lyrics for acoustic guitar and electric guitar. Tablatures and chords are parodies/interpretations of the original songs. You may use it for private study, scholarship, research or language learning purposes only