>
 >
Chasing Pavements

Chasing Pavements Guitar Tabs

Adele - Chasing Pavements chords, tabs, tablatures, lyrics

Guitar lessons | Add/correct | Request | Top 50 tabs Artists:  A B C D E F G H I J K L M N O P Q R S T U V W X Y Z 0-9

Chasing Pavements Guitar Tabs – Adele

CD, Sheet music, Poster

Do you like Chasing Pavements? Share with your friends now
ChordsChords v2Chords v3Chords v4Chords v5Chords v6Chords v7Chords v8Chords v9Chords v10TabsTabs v2Ukulele
-------------------------------------------------------------------------------
-------------------------------------------------------------------------------
Album name: 19

for the strumming pattern.

Tuning: Standard

e|-3-------------|-3------------------------------------------6----------6--|
B|-4--4------3---|-4--4------3--------------------------------6-----8---4---|
G|-5---5---------|-5---5------3------5------4------5----------7----7--------|
D|-5-5------5----|-5-5------5-------3-3----3-3----3-3---------8---8----5---5|
A|-3-------------|-3------------------------------------------8--6----3----5|
E|-3------6------|-3-------6-------4-----3------4-------4/6~--6------------3|
  (intro--------) 


Verse
e|----x----------x-------3~-x-3-3-----x-------4--6--------------------------|
B|-8~-x-8-8---8~-x-8-8--4~-x-4-4-----x-------4--6--------------------------|
G|-7~-x-7-7---7~-x-7-7--5~-x-5-5-----x-------5--7--------------------------|
D|-8~-x-8-8---8~-x-8-8---5~-x-5-5-5~-x-5-5---6--8--------------------------|
A|-6~-x-6-6---5~-x-5-5---3~-x-3-3-5~-x-5-5---6--8--------------------------|
E|----x----------x----------x-----3~-x-3-3---4--6--------------------------|
 

Chorus
e|-4-----3-----------------------4-----3-------------3----------------------|
B|-4-----4-----------------------4-----4----------4--3---4----4------------8|
G|-5-----5------------4--3--4----5-----5----------5--4---5----5------------7|
D|-6--5--5---3--5-6---6--5--5----6--5--5--3--5-6--5--5---6--5-5--3--5-6--5-8|
A|-6--5--3---3--5-6---6--5--5----6--5--3--3--5-6--6--5------5-3--3--5-6--5-6|
E|-4--3------1--3-4---4--3--3----4--3-----1--3-4--4--3---4--3----1--3-4--3--|


Verse 2
e|-3-----4--3---------------------------------------------------------------|
B|-4--3--4--3--4--6---------------------------------------------------------|
G|-5--3--5--3--5--7---------------------------------------------------------|
D|-5--5--6--5--6--8---------------------------------------------------------|
A|-3-----6--5--6--8---------------------------------------------------------|
E|-3--6--4--3--4--6---------------------------------------------------------|

Repeat Chorus

Bridge
e|-3--3--1--6--3---3--1---------4--3-3-1--4---4--3-3-1--4---4--6------------|
B|-4--3--1--6--4---3--1--6--6---4--3-4-1--4---4--3-4-1--4---4--6------------|
G|-5--3--1--7--5---3--1--8--7---5--3-5-1--5---5--4-5-1--5---5--7------------|
D|-5--5--3--8--5---5--3--8--8---6--5-5-3--6---6--5-5-3--6---6--8------------|
A|-3--5--3--8--3---5--3--8--8---6--5-3-3--6---6--5-3-3--6---6--8------------|
E|----3--1--6------3--1--6--6---4--3---1--4---4--3---1--4---4--6------------|

Repeat chorus





Comments


Popular Adele tabs & chords
Chasing Pavements 1 Chords
Dont You Remember 4 Chords
Lovesong Chords
Make You Feel My Love 4 Chords
Set Fire To The Rain 11 Chords
Someone Like You Chords
Love Song Intro Tabs
Rumour Has It Tabs
Skyfall Tabs
Not Drunk Enough Ukulele


Song lyrics



↑ Back to top | Tablatures and chords are parodies/interpretations of the original songs. You may use it for private study, scholarship, research or language learning purposes only
© 2014 AZChords.com Contact us | Privacy policy | DMCA | Add/correct tabs | Request tabs | Top 50 tabs