» » »

Adeaze, Memory Lane Tabs (ver.1)

Artists:  A B C D E F G H I J K L M N O P Q R S T U V W X Y Z # 

Memory Lane Tabs (ver.1)

Adeaze Tabs
 Rating:
4.3/5 (6 votes)
Memory Lane lessons Tabs too difficult? Try these video lessons and learn fast
                -------------------------------------------------------------------------------
-------------------------------------------------------------------------------


Tuning: Standard


Intro

e|---------5---------5---------5---------5--------------5---------5--------|
B|----5h7--5----7----5----7----5----7----5----5----7----5----7----5--------|
G|----6----6----6----6----6----6----6----6----4----6----6----6----6--------|
D|----7---------7---------7---------7---------6----7---------7-------------|
A|----5---------5---------5---------5---------4----5---------5-------------|
E|-------------------------------------------------------------------------|

e|---------4---------4---------2---------2---------------|
B|----5----5----5----5----3----3----3----3----2h3---2----|
G|----4----4----4----4----2----2----2----3----2-----2----|
D|----6---------6---------4---------4---------2-----2----|
A|----4---------4---------2---------2--------------------|
E|-------------------------------------------------------|

e|--------------------|
B|----2----3----5-----|
G|----2----2----4-----|
D|----2----4----6-----|
A|--------------------|
E|--------------------|


Main Riff

e|---------5---------5---------4---------4---------2---------2---------------|
B|----5h7--5----7----5----5----5----5----5----3----3----3----3----2h3---2----|
G|----6----6----6----6----4----4----4----4----2----2----2----3----2-----2----|
D|----7---------7---------6---------6---------4---------4---------2-----2----|
A|----5---------5---------4---------4---------2---------2--------------------|
E|---------------------------------------------------------------------------|

e|---------------------|
B|----2----3----5------|
G|----2----2----4------|
D|----2----4----6------|
A|---------------------|
E|---------------------|

Pick the chords rather then strum so you get a closer mimic of the style the song is 
in.
The main riff is used through out the song, listen to the actual song to get the rhythm 
timing.

Enjoy
************************************

| /   slide up
| \   slide down
| h   hammer-on
| p   pull-off
| ~   vibrato
| +   harmonic
| x   Mute note
| b   Bend
| pb  Pre-bend
| br  Bend release
| pbr Pre-bend release
| brb Bend release bend

************************************
            
Submit corrections

comments powered by Disqus
↑ Back to top | Adeaze Tabs for Memory Lane. Lyrics for acoustic guitar and electric guitar. Tablatures and chords are parodies/interpretations of the original songs. You may use it for private study, scholarship, research or language learning purposes only