» » »

The Downfall Of Us All Tabs (ver.2)

Artists:  A B C D E F G H I J K L M N O P Q R S T U V W X Y Z # 

The Downfall Of Us All Tabs (ver.2)

A Day To Remember
Rating:
0/5 (0 votes)

Hard to play? Try these video lessons and learn fast.
                First tab, please rate

Drop C

Thanks to The Poison7337 for the intro and first verse
thanks to YeahRightMilk for the second verse

Intro

(:07-:21)
D|---------------------------------------------------------------------|
A|---------------------------------------------------------------------|
F|---------------------------------------------------------------------|
C|-00000000-00-00--0-0-0--00-00--99999999-99-99--55-55-55--------------|
G|-00000000-00-00--0-0-0--00-00--99999999-99-99--55-55-55----4---------|
C|-00000000-00-00--0-0-0--00-00--99999999-99-99--55-55-55-5h7----------|
   ........ .. ..  . . .  .. ..  ........ .. ..  .. .. ..


D|---------------------------------------------------------------------|
A|---------------------------------------------------------------------|
F|---------------------------------------------------------------------|
C|-00000000-00-00--0-0-0--00-00--99999999-99-99--55-55-55--5555--------|
G|-00000000-00-00--0-0-0--00-00--99999999-99-99--55-55-55--5555--------|
C|-00000000-00-00--0-0-0--00-00--99999999-99-99--55-55-55--5555--------|
   ........ .. ..  . . .  .. ..  ........ .. ..  .. .. ..  ....

Verse

()= optional, don't put a lot of emphasis on them if you use them.
(:21-:36)
D|-----------------------|
A|-(3)--(12)---(8)-------|
F|-(2)--(12)---(7)-------|  x2
C|--0----9------5--------|
G|--0----9------5--------|
C|--0----9------5--------|

Prechorus
(:37-:48)
D|----------------------------------------|
A|----------------------------------------|
F|----------------------------------------|  
C|-9-----5-----0-----2-----9-----5--------|
G|-9-x8--5-x6--0-x14-2-x2--9-x8--5-x6-----|
C|-9-----5-----0-----2-----9-----5--------|
                                 .
 
Chorus
(:48-1:05)
D|------------------------------------|
A|------------------------------------|
F|------------------------------------|  x3
C|-0-0-0-2-0-0-0-5-0-0-7-7-7-7-7-7----|
G|-0-0-0-2-0-0-0-5-0-0-7-7-7-7-7-7----|
C|-0 0-0-2-0-0-0-5-0-0-7-7-7-7-7-7----|

D|----------------------------|
A|----------------------------|
F|----------------------------|  
C|-2----5---------------------|
G|-2-x8-5-x2------------------|
C|-2----5-------------~-------|

Intro (1:07-1:21)

pickslide into the verse

Verse 2
(1:22-1:27)
D|-----------------------|
A|-(3)--(12)---(8)-------|
F|-(2)--(12)---(7)-------|  
C|--0----9------5--------|
G|--0----9------5--------|
C|--0----9------5--------|
(1:28-1:35)
D|--------------------------------------------------------------------|
A|--------------------------------------------------------------------|
F|--------------------------------------------------------------------|
C|-------4h5-----4h5-----7h4-----4h5-----4h5-----4h5-----2h4-----4h5--|
G|--------------------------------------------------------------------|
C|---0-0-----------------------------0-0------------------------------|

D|--------------------------------------------------------------------|
A|--------------------------------------------------------------------|
F|--------------------------------------------------------------------|
C|-------4h5-----4h5-----7h4-----4h5-----4h5-----4h5-----2h4-----4h5--|
G|--------------------------------------------------------------------|
C|---9-9-------------9-9--------------5-5------------5-5--------------|

Prechorus
(1:36-1:46)
D|----------------------------------------|
A|----------------------------------------|
F|----------------------------------------|  
C|-9-----5-----0-----2-----9-----5--------|
G|-9-x8--5-x6--0-x14-2-x2--9-x8--5--------|
C|-9-----5-----0-----2-----9-----5--------|

Chorus (1:47-2:04)

Breakdown                         not too sure about this
                                            | | |
(2:05-2:35)                                 v v v
D|-----------------------------------------------------------|
A|-----------------------------------------------------------|
F|-------12-11-------12-11--------12-11-----7-6-7------------|  x2
C|-0------x-x---0-----x-x---5------x-x---7--x-x-x------------|
G|-0-x4--10/9---0-x4-10/9---5-x4--10/9---7--5/4/5------------|
C|-0------------0-----------5------------7-------------------|

D|-----------------------------------------------------------|
A|-----------------------------------------------------------|
F|-------12-11-------12-11--------12-11----------------------|  x2
C|-0------x-x---0-----x-x---5------x-x---7-7-7-7---7-7-7-----|
G|-0-x4--10/9---0-x4-10/9---5-x4--10/9---7-7-7-7---7-7-7-----|
C|-0------------0-----------5------------7-7-7-7---7-7-7-----|
   .            .           .            . . . .   . . .


Bridge
2:36-2:42)
D|----------------------------------------|
A|----------------------------------------|
F|----------------------------------------|   x2
C|----------------------------------------|
G|----------------------------------------|
C|-0 0-0-2-0-0-0-5-0-0-7-7-7-7-7-7--------|

Chorus
(2:43-3:04)
D|-------------------------------------|
A|-------------------------------------|
F|-------------------------------------|
C|-0-0-0-2-0-0-0-5-0-0-7-7-7-7-7-7-----|
G|-0-0-0-2-0-0-0-5-0-0-7-7-7-7-7-7-----|
C|-0 0-0-2-0-0-0-5-0-0-7-7-7-7-7-7-----|
(3:05-3:10)
D|----------------------------|
A|----------------------------|
F|----------------------------|  
C|-2----5------2-----5~-------|
G|-2-x8-5-x8---2-x8--5~-------|
C|-2----5------2-----5~-------|

Intro(3:11-3:27)


D|---------------------------------------------------------------------|
A|---------------------------------------------------------------------|
F|---------------------------------------------------------------------|
C|-00000000-00-00--0-0-0--00-00--99999999-99-99--55-55-55--------------|
G|-00000000-00-00--0-0-0--00-00--99999999-99-99--55-55-55--------------|
C|-00000000-00-00--0-0-0--00-00--99999999-99-99--55-55-55--------------|
   ........ .. ..  . . .  .. ..  ........ .. ..  .. .. ..


D|---------------------------------------------------------------------|
A|---------------------------------------------------------------------|
F|---------------------------------------------------------------------|
C|-00000000-00-00--0-0-0--00-00--99999999-99-99--55-55-55--5555--------|
G|-00000000-00-00--0-0-0--00-00--99999999-99-99--55-55-55--5555--------|
C|-00000000-00-00--0-0-0--00-00--99999999-99-99--55-55-55--5555--------|
   ........ .. ..  . . .  .. ..  ........ .. ..  .. .. ..  ....
            
Hard to play? Try these video lessons and learn fast. | Correct




comments powered by Disqus
↑ Back to top | Tablatures and chords are parodies/interpretations of the original songs. You may use it for private study, scholarship, research or language learning purposes only