>
 >
Speak Of The Devil

Speak Of The Devil Guitar Tabs

A Day To Remember - Speak Of The Devil chords, tabs, tablatures, lyrics

Guitar lessons | Add/correct | Request | Top 50 tabs Artists:  A B C D E F G H I J K L M N O P Q R S T U V W X Y Z 0-9

Speak Of The Devil Guitar Tabs – A Day To Remember

CD, Sheet music, Poster

Do you like Speak Of The Devil? Share with your friends now
Bass TabsTabsTabs v2Tabs v3

Tabs for the song: Speak of the Devil by A Day To Remember
Please rate and let me know if you have any corrections, thank you.


*Updated on 3/30/10 - Updated entire tab including 2nd Guitar. Should be 
very accurate. Enjoy!


Tuning: Drop C (C G C F A D)


Intro
Guitar 1:
D||-----------------------------|
A||-------666666666---x---555---|
F||-------xxxxxxxxx---x---555---| x3
C||-0--0--777777777---x---555---|
G||-0--0--555555555---x---333---|
C||-0--0------------------------|


Guitar 2:
D||-------|
A||-------|
F||-------|
C||---0---|
G||---0---|
C||---0---|


Guitar 1/2
D||-------------------------------------|
A||-------------------------------------|
F||--3-3---3-3---2-222------------------|
C||--3-3---3-3---2-222---3--------------|
G||--1-1---1-1---0-000---3--------------|
C||----------------------3--------------|
                         .

D||-----------------------------------|-----------------------------------|
A||-------666666666---x---555---------|-----------------------------------|
F||-------xxxxxxxxx---x---555----x3---|--3-3---3-3---2-2------------------|
C||-0--0--777777777---x---555---------|--3-3---3-3---2-2---3-3------------|
G||-0--0--555555555---x---333---------|--1-1---1-1---0-0---3-3------------|
C||-0--0------------------------------|--------------------3-3------------|



Verse
Guitar 1:
D||-----------------------------------|--------------------------------------------|
A||-----------------------------------|--------------------------------------------|
F||-----------------------------------|--------------------3-3---3-3---5-5---5-5---|
C||-0-------------0-0-----------------|--0--------------0--3-3---3-3---5-5---5-5---| x2
G||-0-------------0-0-----------------|--0--------------0--1-1---1-1---3-3---3-3---|
C||-000000000000000-000000000--3-6-5--|--0000000000000000--------------------------|
     .............   ........             ..............

Guitar 2:
D||-----------------------------------|------------------------------------------------|
A||-----------------------------------|------------------------------------------------|
F||-----------------------------------|--------------------10-10--10-10--9-9-----------|
C||-0-------------0-0-----------------|--0--------------0--x--x---x--x---x-x-----------|
G||-0-------------0-0-----------------|--0--------------0--8--8---8--8---7-7---7-h8p5--|
C||-000000000000000-000000000--3-6-5--|--0000000000000000------------------------------|
     .............   ........             ..............

D||-----------------------------------|--------------------------------------------------|
A||-----------------------------------|--------------------------------------------------|
F||-----------------------------------|--------------------10-10--10-10--12-12-----------|
C||-0-------------0-0-----------------|--0--------------0--x--x---x--x---x--x------------|
G||-0-------------0-0-----------------|--0--------------0--8--8---8--8---10-10---7-h8p5--|
C||-000000000000000-000000000--3-6-5--|--0000000000000000--------------------------------|
     .............   ........             ..............



Pre-Chorus
Guitar 1:
D||--------------|
A||--------------|
F||-3-----5------|
C||-3-----5---\--|
G||-1-----3---\--|
C||-----------\--|


Guitar 2:
D||-------------------------|
A||-------------------------|
F||-10-----12---9----5------|
C||-x------x----x----x---\--|
G||-8------10---7----3---\--|
C||----------------------\--|



Chorus
Guitar 1:
D||------------------------------------------------------------------------|
A||------------------------------------------------------------------------|
F||--7-77-777-777-777-----------------------------------5-55-555-555-555---|
C||--7-77-777-777-777-8-88-888-888-888-3-33-333-333-333-5-55-555-555-555---| x2
G||--5-55-555-555-555-8-88-888-888-888-3-33-333-333-333-3-33-333-333-333---|
C||-------------------8-88-888-888-888-3-33-333-333-333--------------------|


Guitar 2:
D||--------------------------------------------------------------------------|
A||--------------------------------------------------------------------------|
F||--10-1010-101010-101010-101010--7-77-777-777-777--14--1414-141414-141414--|
C||--x--x-x--x-x-x--x-x-x--x-x-x---x-xx-xxx-xxx-xxx--x---x-x--x-x-x--x-x-x---|
G||--8--8-8--8-8-8--8-8-8--8-8-8---5-55-555-555-555--12--1212-121212-121212--|
C||--------------------------------------------------------------------------|


D||-----------------------------------|
A||-----------------------------------|
F||--101010-12-1212-121212-9--99-999--| x2
C||--x-x-x--x--x-x--x-x-x--x--xx-xxx--|
G||--8-8-8--10-1010-101010-7--77-777--|
C||-----------------------------------|


Guitar 1:
D||-----------------------------|
A||-------666666666---x---555---|
F||-------xxxxxxxxx---x---555---|
C||-0--0--777777777---x---555---| x2
G||-0--0--555555555---x---333---|
C||-0--0------------------------|


Guitar 2:
D||-----------------------------|
A||-----------------------------|
F||-----------------------------|
C||-0~----------------------0---|
G||-0~----------------------0---|
C||-0~----------------------0---|



Verse
Guitar 1:
D||-----------------------------|-----------------------------------------|
A||-----------------------------|-----------------------------------------|
F||-----------------------------|-----------------3-3---3-3---5-5---5-5---|
C||-0-----------0---------------|--0--------------3-3---3-3---5-5---5-5---| x2
G||-0-----------0---------------|--0--------------1-1---1-1---3-3---3-3---|
C||-00000-------00000--0h3-6-5--|--00000----------------------------------|
     ....        ....               ....


Guitar 2:
D||-----------------------------|----------------------------------------------|
A||-----------------------------|----------------------------------------------|
F||-----------------------------|-----------------10-10--10-10--12--12---9-9---|
C||-0-----------0---------------|--0--------------x--x---x--x---x---x----x-x---| x2
G||-0-----------0---------------|--0--------------8--8---8--8---10--10---7-7---|
C||-00000-------00000--0h3-6-5--|--00000---------------------------------------|
     ....        ....               ....



Pre-Chorus
Guitar 1:
D||--------------------|
A||--------------------|
F||-3-----5-----x-x-x--|
C||-3-----5-----x-x-x--|
G||-1-----3-----x-x-x--|
C||--------------------|


Guitar 2:
D||---------------------------|
A||---------------------------|
F||-10-----12---9----5-x-x-x--|
C||-x------x----x----x-x-x-x--|
G||-8------10---7----3-x-x-x--|
C||---------------------------|



Chorus
Guitar 1:
D||------------------------------------------------------------------------|
A||------------------------------------------------------------------------|
F||--7-77-777-777-777-----------------------------------5-55-555-555-555---|
C||--7-77-777-777-777-8-88-888-888-888-3-33-333-333-333-5-55-555-555-555---| x2
G||--5-55-555-555-555-8-88-888-888-888-3-33-333-333-333-3-33-333-333-333---|
C||-------------------8-88-888-888-888-3-33-333-333-333--------------------|


Guitar 2:
D||--------------------------------------------------------------------------|
A||--------------------------------------------------------------------------|
F||--10-1010-101010-101010-101010--7-77-777-777-777--14--1414-141414-141414--|
C||--x--x-x--x-x-x--x-x-x--x-x-x---x-xx-xxx-xxx-xxx--x---x-x--x-x-x--x-x-x---|
G||--8--8-8--8-8-8--8-8-8--8-8-8---5-55-555-555-555--12--1212-121212-121212--|
C||--------------------------------------------------------------------------|


D||-----------------------------------|
A||-----------------------------------|
F||--101010-12-1212-121212-9--99-999--| x2
C||--x-x-x--x--x-x--x-x-x--x--xx-xxx--|
G||--8-8-8--10-1010-101010-7--77-777--|
C||-----------------------------------|



Bridge
Guitar 2:
D||------|
A||------|
F||--10~-|
C||--x---|
G||--8~--|
C||------|


Guitar 1:
D||-----------------------------------|---------------------------------|
A||-66--------------------------------|-66------------------------------|
F||-xx--------------------------------|-xx------------------------------|
C||-77-000-0-----------000-000----x3--|-77-000-0------------------------|
G||-55-000-0-----------000-000-0------|-55-000-0------------------------|
C||----000-0---0---0---000-000-0------|----000-0------------------------|
       ... .   .   .   ... ... .           ... .    


Guitar 1/2
D||-----------------------------------|---------------------------------|
A||-66--------------------------------|-66------------------------------|
F||-xx--------------------------------|-xx------------------------------|
C||-77-000-0-----------000-000----x3--|-77-000-0------------------------|
G||-55-000-0-----------000-000-0------|-55-000-0------------------------|
C||----000-0---0---0---000-000-0------|----000-0-----5b7--br------------|
       ... .   .   .   ... ... .           ... .    


D||------------------------------------|
A||-66---------------------------------|
F||-xx---------------------------------|
C||-77-000-0~---------000-000----------| x4
G||-55-000-0~---------000-0000---------|
C||----000-0~------0--000-0000---------|
       ... .       .  ... ....   



Pre-Chorus
Guitar 1:
D||-----------|
A||-----------|
F||-3-----5\--|
C||-3-----5\--|
G||-1-----3\--|
C||-----------|


Guitar 2:
D||--------------|
A||--------------|
F||-10-----12-\--|
C||-x------x--\--|
G||-8------10-\--|
C||--------------|



Chorus
Guitar 1:
D||------------------------------------------------------------------------|
A||------------------------------------------------------------------------|
F||--7-77-777-777-777-----------------------------------5-55-555-555-555---|
C||--7-77-777-777-777-8-88-888-888-888-3-33-333-333-333-5-55-555-555-555---| x4
G||--5-55-555-555-555-8-88-888-888-888-3-33-333-333-333-3-33-333-333-333---|
C||-------------------8-88-888-888-888-3-33-333-333-333--------------------|


Guitar 2:
D||--------------------------------------------------------------------------|
A||--------------------------------------------------------------------------|
F||--10-1010-101010-101010-101010--7-77-777-777-777--14--1414-141414-141414--|
C||--x--x-x--x-x-x--x-x-x--x-x-x---x-xx-xxx-xxx-xxx--x---x-x--x-x-x--x-x-x---|
G||--8--8-8--8-8-8--8-8-8--8-8-8---5-55-555-555-555--12--1212-121212-121212--|
C||--------------------------------------------------------------------------|


D||-----------------------------------|
A||-----------------------------------|
F||--101010-12-1212-121212-9--99-999--| x4
C||--x-x-x--x--x-x--x-x-x--x--xx-xxx--|
G||--8-8-8--10-1010-101010-7--77-777--|
C||-----------------------------------|



Outro
Guitar 1:
D||--------------------------------|-----------------------------------|
A||--------------------------------|-----------------------------------|
F||--------------------------------|-----------------------------------|
C||-------7------------------7--0--|--------7-----------------7--------|
G||---8-------8------7---8------0--|----8-------8-------5/7-8---8-7----|
C||-0---0---0---0--0---0---0----0--|--0---0---0---0--0-----------------|
    .   .   .   .  .   .   .          .   .   .   .  .


Guitar 2:
D||--------------------------------|-----------------------------------|
A||--------------------------------|-----------------------------------|
F||--------------------------------|-----------------------------------|
C||-0~--------------------------0--|--------------------------10-------|
G||-0~--------------------------0--|-------------------8/10-12--12-10--|
C||-0~--------------------------0--|-----------------------------------|


Guitar 1:
D||----------------------------------------|
A||----------------------------------------|
F||----------------------------------------|
C||-0-------------0-0--------------0000----|
G||-0-------------0-0--------------0000----|
C||-000000000000000-00000000000000-0000----|
     .............   ............. ....


Guitar 2:
D||--------------------------------|--------------------------------------|
A||--------------------------------|--------------------------------------|
F||--------------------------------|--------------------------------------|
C||-------7------------------7--0--|--------7-------------------10--------|
G||---8-------8------7---8------0--|----8-------8-------8/10-12----12-10--|
C||-0---0---0---0--0---0---0----0--|--0---0---0---0--0--------------------|
    .   .   .   .  .   .   .          .   .   .   .  .





Tablature Legend
----------------
 h   - hammer-on
 p   - pull-off
 b   - bend
 r   - release bend
 *   - pinch harmonic
 '   - natural harmonic
 x   - mute note
 .   - palm mute
 /   - slide down
 \   - slide up





Comments


Popular A Day To Remember tabs & chords
Have Faith In Me Bass Tabs
Violence Enough Is Enough Bass Tabs
All Signs Point To Launderdale Chords
If It Means A Lot To You 3 Chords
Leave All The Lights On Chords
My Life For Hire Chords
Over My Head Cable Car 1 Tabs
Plot To Bomb The Panhandle 4 Tabs
Since U Been Gone 1 Tabs
You Shouldve Killed Me When You Had The Chance Ukulele


Song lyrics



↑ Back to top | Tablatures and chords are parodies/interpretations of the original songs. You may use it for private study, scholarship, research or language learning purposes only
© 2014 AZChords.com Contact us | Privacy policy | DMCA | Add/correct tabs | Request tabs | Top 50 tabs