» » »

A Day To Remember, Right Where You Want Me To Be Tabs (ver.1)

Artists:  A B C D E F G H I J K L M N O P Q R S T U V W X Y Z # 

Right Where You Want Me To Be Tabs (ver.1)

A Day To Remember Tabs
 Rating:
4/5 (4 votes)
Right Where You Want Me To Be lessons Tabs too difficult? Try these video lessons and learn fast
                
REAL FANS SUPPORT BANDS BY PURCHASING THEIR CDS!

Tuning: Drop C

. = palm-muted
~ = hold
b = bend
h = hammer-on
p = pull-off
/ = slide up
\ = slide down


Intro:
Guitar 1
D-------------------------------------------------|
A-------------------------------------------------|
F-------------------------------------------------|
C---10-------12-------3------3-3-3-3-3-x-x-x------| x2
G---10-x16---12-x16---3-x24--3-3-3-3-3-x-x-x------|
C---10-------12-------3------3-3-3-3-3-x-x-x------|


Guitar 2: (thanks to elleild)
D|--------------------------------------------|
A|--5-6666-55-3333----------------------------|
F|--5-5555-55-5555-5555-----------------------|
C|--------------------------------------------| x2
G|--------------------------------------------|
C|--------------------------------------------|

E|--------------------------------------------|
B|--------------------------------------------|
G|--------------------------------------------|
D|------10----10\5-------12---12--------xxx---|
A|-8~-8----8----------10---10---10------xxx---|
D|--------------------------------------xxx---|
(whole part 2 times)


Guitar 3
D--------------------------------------------------------|
A--------------------------------------------------------|
F---5----------------------------------------------------|
C---x---all the time (im serious, its important)---------|
G---3----------------------------------------------------|
C--------------------------------------------------------|


Verse:
Guitar 1
D--------------------------------------------------------------|
A--------------------------------------------------------------|
F--------------------------------------------------------------|
C---10---------------------------------------------------------|
G---10--10-10-10-10-10-10-10---10-10-10-10-10-10-10-10---------|
C---10--10-10-10-10-10-10-10---10-10-10-10-10-10-10-10---------|
        .  .  .  .  .  .  .    .  .  .  .  .  .  .  .


D--------------------------------------------|
A--------------------------------------------|
F--------------------------------------------|
C---5-------------------3--------------------|
G---5-5-5-5-5-5-5-5-----3-3-3-3-3-3-3-3------|
C---5-5-5-5-5-5-5-5-----3-3-3-3-3-3-3-3------|
      . . . . . . .       . . . . . . .


D-------------------------------------------------|
A-------------------------------------------------|
F-------------------------------------------------|
C---10~--10---------5~-5----3~-3-3---6~--6-6------|
G---10~--10---------5~-5----3~-3-3---6~--6-6------|
C---10~--10---------5~-5----3~-3-3---6~--6-6------|

D--------------------------------------------------------------------------|
A--------------------------------------------------------------------------|
F------------------5-------------------------------------------------------|
C---7-------3------5-x8--5--5-5---6--6-6-----7------3------5-5------5-5----|
G---7-x8----3-x8---3-----5--5-5---6--6-6-----7-x8---3-x8---5-5-x14--5-5----|
C---7-------3------------5--5-5---6--6-6-----7------3------5-5------5-5----|
(sorry but u know the strumming ;D)                          .


Guitar 2: (some picking to these 2 riffs)
0:30                 0:36
D-------------------------------------|
A---5----------------8----------------|
F---5----------------7----------------|
C---5----------------5----------------|
G-------------------------------------|
C-------------------------------------|


Chorus:
Guitar 1 (u know the strumming)
D--------------------------------------------------------------|
A--------------------------------------------------------------|
F---5--------------5-------------------------------------------|
C---5-x8---3-------5-x8---3---------7-------5-------3----------|
G---3------3-x8----3------3-x8------7-x8----5-x8----3-x16------|
C----------3--------------3---------7-------5-------3----------|


Guitar 2
D----8-------8------8-----8------8------8-----8-----8------8----8------8-----|
A------8-------8------------8------8------------8-----8-----------8------8---|
F--5------5------5------------5------5------------5-----5-----------5------5-|
C----------------------------------------------------------------------------|
G----------------------------------------------------------------------------|
C----------------------------------------------------------------------------|

D--------------------------------------------------------------|
A--------------------------------------------------------------|
F---9---9----9/11\9-----7---7----7/9\7-----5--5---5------------|
C---x---x----x/x-\x-----x---x----x/x\x-----x--x---x-x12--------|
G---7---7----7/9-\7-----5---5----5/7\5-----3--3---3------------|
C--------------------------------------------------------------|


Interlude: (faster/shorter intro)
Guitar 1
D------------------------------------|
A------------------------------------|
F------------------------------------|
C---10--------12------3--------------|
G---10-x16----12-x8---3-x8-----------|
C---10--------12------3--------------|

Guitar 2:
D------------------------------------------------|
A------------------------------------------------|
F---9---9-9-10-10-9-9---7-7-7-7-5---5-5-5--------|
C------------------------------------------------| x2
G------------------------------------------------|
C------------------------------------------------|


Verse:
Guitar 1
D--------------------------------------------------------------|
A--------------------------------------------------------------|
F--------------------------------------------------------------|
C---10---------------------------------------------------------|
G---10--10-10-10-10-10-10-10---10-10-10-10-10-10-10-10---------|
C---10--10-10-10-10-10-10-10---10-10-10-10-10-10-10-10---------|
        .  .  .  .  .  .  .    .  .  .  .  .  .  .  .

D--------------------------------------------|
A--------------------------------------------|
F--------------------------------------------|
C---5-------------------3--------------------|
G---5-5-5-5-5-5-5-5-----3-3-3-3-3-3-3-3------|
C---5-5-5-5-5-5-5-5-----3-3-3-3-3-3-3-3------|
      . . . . . . .       . . . . . . .

D--------------------------------------------------------------|
A--------------------------------------------------------------|
F--------------------------------------------------------------|
C---10---------------------------------------------------------|
G---10--10-10-10-10-10-10-10---10-10-10-10-10-10-10-10---------|
C---10--10-10-10-10-10-10-10---10-10-10-10-10-10-10-10---------|
        .  .  .  .  .  .  .    .  .  .  .  .  .  .  .

D-----------------------------------------|
A-----------------------------------------|
F-----------------------------------------|
C---5-------------------3----6~--6-6------|
G---5-5-5-5-5-5-5-5-----3----6~--6-6------|
C---5-5-5-5-5-5-5-5-----3----6~--6-6------|
      . . . . . . .

D--------------------------------------------------------------------------|
A--------------------------------------------------------------------------|
F------------------5-------------------------------------------------------|
C---7-------3------5-x8--5--5-5---6--6-6-----7------3------5-5------5-5----|
G---7-x8----3-x8---3-----5--5-5---6--6-6-----7-x8---3-x8---5-5-x14--5-5----|
C---7-------3------------5--5-5---6--6-6-----7------3------5-5------5-5----|
                                                             .

Guitar 2
Only plays a lil riff at 1:21
D----------------------------------------------------------|
A----------------------------------------------------------|
F----------------------------------------------------------|
C----------------------------------------------------------|
G--7---7-7-7---10-10---5---5-7---7-7---7-5----6~-----------|
C----------------------------------------------------------|


REPEAT CHORUS (both guitars)


Breakdown 1: (only Bass til 2:13)
Guitar 2 at 2:08
C----------------------------------------------------------|
A----------------------------------------------------------|
F--12-12-12-12-12-12-12-12---10-10-10-10---9-9-9-9---------|
C----------------------------------------------------------|
G----------------------------------------------------------|
C----------------------------------------------------------|
   .  .  .  .  .  .  .  .

Guitar 1 from 2:13
C-------------------------------------|
A-------------------------------------|
F-------------------------------------|
C---7~---12~---3---3-3-3-3-3--3555-3--|
G---7~---12~---3---3-3-3-3-3--3555-3--|("but weve build somethin here")
C---7~---12~---3---3-3-3-3-3--3555-3--|
                   . . . . .  ....

Guitar 2
C-----------------------------------|
A-----------------------------------|
F---5~----7~----5~------------------|
C---x~----x~----x~------------------|
G---3~----5~----3~------------------|
C-----------------------------------|


Bridge:
Guitar 1  play the chords slower then usually
C------------------------------------------------------|
A------------------------------------------------------|
F------------------------------------------------------|
C----7-------12-------3-3-3-3-3-3-555---3--------------|
G----7-x8----12-x8----3-3-3-3-3-3-555---3--x8----------|
C----7-------12-------3-3-3-3-3-3-555---3--------------|


Guitar 2
C----------------------------------------------------------------------------|
A----------------------------------------------------------------------------|
F--5-5-5-5-5--12-12-12---9-9-9-9-9--7-7/9---5-5-5-5-5-5-777--5-5-5-5-5-4-4/5-|
C--x-x-x-x-x--x--x--x----x-x-x-x-x--x-x/x---x-x-x-x-x-x-xxx--x-x-x-x-x-x-x/x-|
G--3-3-3-3-3--10-10-10---7-7-7-7-7--5-5/7---3-3-3-3-3-3-555--3-3-3-3-3-2-2/3-|
C----------------------------------------------------------------------------|

Break-Down 2:
Guitar 4 (acoustic, full-step down tuning)
C---(0~)--(1~)--(0~)--(1~)--------------|
A----1~----1~----1~----1~---------------|
F----0~----2~----0~----2~---------------|
C----2~----3~----2~----3~---------------|
G----3~----3~----3~----3~---------------|
C----------1~----------1~---------------|

Guitar 1 (afterwards)
C-----------------------------------------------------|
A-----------------------------------------------------|
F-----------------------------------------------------|
C---7-7777777----5-5555555----3-3333333-333--33-------|
G---7-7777777----5-5555555----3-3333333-333--33-------|
C---7-7777777----5-5555555----3-3333333-333--33-------|
      .......      .......      ....... ...


REPEAT CHORUS (both guitars)


and thats it! i hope u enjoyed and if u find any error, please contact me or leave a comment ;D

Cheers...
            
Submit corrections

comments powered by Disqus
↑ Back to top | A Day To Remember Tabs for Right Where You Want Me To Be. Lyrics for acoustic guitar and electric guitar. Tablatures and chords are parodies/interpretations of the original songs. You may use it for private study, scholarship, research or language learning purposes only